Song name
# A B C D E F G H I J K L M N O P Q R S T U V W X Y Z

Chimaira - Everything You Love tab

Clean part

|--------------------------------------------------------------------------|
|--------------------------------------------------------------------------|
|-------------------------------------0---0---0----------------------------|
|-----7---7---7-----0--0--0---------5---5---5------0-----------------------|
|---5---5---5-----5---5--5---------3--------------4--4-4-3h43h4------------|
|-0-------------8-------------------------------4--------------------------|


Fuzz part

|-------------------|
|-------------------|
|-------------------|    2X
|---0-6---10-4------|
|---0-6---10-4------|
|---0-6---10-4------|


Then the same as the clean butt with fuzz, and then

|-------------------------------------------------------------------|
|-------------------------------------------------------------------|
|-------------------------------------------------------------------|
|---0-6-10-4-8-4-3-1-4-3--4-4-3-1-8-4-3-1-4-6--4-4-3-1-8-4-3-1-4-3--|
|---0-6-10-4-8-4-3-1-4-3--4-4-3-1-8-4-3-1-4-6--4-4-3-1-8-4-3-1-4-3--|
|---0-6-10-4-8-4-3-1-4-3--4-4-3-1-8-4-3-1-4-6--4-4-3-1-8-4-3-1-4-3--|

-----------------|
-----------------|
-----------------|
4-4-3-1-8-4-3-1-4|
4-4-3-1-8-4-3-1-4|
4-4-3-1-8-4-3-1-4|


I'm a 14 year old boy, and this is my first tab. Hope you like it.
Tap to rate this tab
# A B C D E F G H I J K L M N O P Q R S T U V W X Y Z