Song name
# A B C D E F G H I J K L M N O P Q R S T U V W X Y Z

Chimaira - Pray For All tab

-------------------------------------------------------------------------------
			  PRAY FOR ALL - Chimaira
-------------------------------------------------------------------------------
Tabbed by: windsofcreation

| /  slide up
| \  slide down
| h  hammer-on
| p  pull-off
| ~  vibrato
| b  bend
| +  harmonic
| x  Mute note


 this is easily one of, if not the best track on this album, and yet nobodys
 tabbed it out yet... what the hell is up with that?!?!?  ah well, its done now,
 so revel in it... long live metal...


Tuning: C G C F A D

d|-----------------------------------------------|
A|-----------------------------------------------|
F|-----------------------------------------------|
C|-0-00-1/3-00-3/4-000000-000-3/4-00-4/6-000000--|
G|-0-00-1/3-00-3/4-000000-000-3/4-00-4/6-000000--|
C|-0-00-1/3-00-3/4-000000-000-3/4-00-4/6-000000--| x6
     xx     xx     xxxxxx xxx     xx     xxxxxx


d|-----------------------------------------------|
A|-----------------------------------------------|
F|-----------------------------------------------|
C|-----------------------------------------------|
G|-------------1-3-5---------3-5-6-5-6-5-6-8-9b--|
C|-0-1-3-1-3-1-------0000000---------------------| x1
                     xxxxxxx


d|-----------------------------------------------------|
A|-----------------------------------------------------|
F|-----------------------------------------------------|
C|-----------------------------------------------------|
G|-------------1-3-5---------3-5-6-5-6-5-6-8-9---------|
C|-0-1-3-1-3-1-------0000000-------------------0000000-| x4
                     xxxxxxx                   xxxxxxx


d|-----------------------------------------------------|
A|-----------------------------------------------------|
F|-----------------------------------------------------|
C|-----------------------------------------------------|
G|-9-8-6-8-6-5-6-5-3---------3-5-6-5-6-5-6-8-9---------|
C|-------------------0000000-------------------0000000-| x4
                     xxxxxxx                   xxxxxxx


d|----------------------------------------------------------------------|
A|----------------------------------------------------------------------|
F|----------------------------------------------------------------------|
D|----------------------------8-11-10-----------------------------------|
G|-6---5------3h5-3h5----6----6-9--8-----6---5---3h5-3h5----6-----5---5-|
C|---0---0-00---------00---00---------00---0---0---------00---0-6---3---| x2
     x   x xx         xx   xx          xx   x   x         xx   x


d|---|
A|---|
F|---|
C|-0-|
G|-0-|
C|-0-| end with this the second time.


d|-------------------------|
A|-------------------------|
F|-------------------------|
C|-0-00-1/3-00-3/4-00-4/6--|
G|-0-00-1/3-00-3/4-00-4/6--|
C|-0-00-1/3-00-3/4-00-4/6--| x1
     xx     xx     xx


d|-----------------------------------------------------|
A|-----------------------------------------------------|
F|-----------------------------------------------------|
C|-----------------------------------------------------|
G|-------------1-3-5---------3-5-6-5-6-5-6-8-9---------|
C|-0-1-3-1-3-1-------0000000-------------------0000000-| x2
                     xxxxxxx                   xxxxxxx


d|-----------------------------------------------------|
A|-----------------------------------------------------|
F|-----------------------------------------------------|
C|-----------------------------------------------------|
G|-9-8-6-8-6-5-6-5-3---------3-5-6-5-6-5-6-8-9---------|
C|-------------------0000000-------------------0000000-| x2
                     xxxxxxx                   xxxxxxx


d|----------------------------------------------------------------------|
A|----------------------------------------------------------------------|
F|----------------------------------------------------------------------|
D|----------------------------8-11-10-----------------------------------|
G|-6---5------3h5-3h5----6----6-9--8-----6---5---3h5-3h5----6-----5---5-|
C|---0---0-00---------00---00---------00---0---0---------00---0-6---3---| x2
     x   x xx         xx   xx          xx   x   x         xx   x
  
                                    
d|---|
A|---|
F|---|
c|-0-|
G|-0-|
C|-0-| end with this the second time.


d|----------------------------------------------------|
A|----------------------------------------------------|
F|----------------------------------------------------|
C|------------------8-11-10---------------------------|
G|-6---5------------6-9--8-----6---5------------5---3-|
C|---0---0-00000000---------00---0---0-000000-6---5---| x2
     x   x xxxxxxxx         xx   x   x xxxxxx
      

d|---|
A|---|
F|---|
c|-0-|
G|-0-|
C|-0-| end with this the second time.


d|-----------------------------------------|
A|-----------------------------------------|
F|-----------------------------------------|    this is the rhythm under the
C|-0-1-3-4---0-1-3-4---0-1-3-4---0-1-3-4---|    solo, which i cant be arsed
G|-0-1-3-4---0-1-3-4-----------------------|    to work out.
C|-0-1-3-4---0-1-3-4-----------------------| x1


d|---------------------|
A|---------------------|      after this comes another riff i havent gotten
F|---------------------|      round to working out yet - i'll add it when i
C|-0-1-1/4--0-0-1/4----|      do, or ifanyone beats me to it then let me
G|-0-1-1/4--0-0-1/4----|      know.
C|-0-1-1/4--0-0-1/4----| x10
            x

 (INSERT MYSTERIOUS RIFF... x2)

d|---------------------|
A|---------------------|
F|---------------------|
C|-0-1-1/4--0-0-1/4----|
G|-0-1-1/4--0-0-1/4----|
C|-0-1-1/4--0-0-1/4----| x2
            x

 (INSERT MYSTERIOUS RIFF AGAIN... x2)

d|---------------------|
A|---------------------|
F|---------------------|
C|-0-1-1/4--0-0-1/4----|
G|-0-1-1/4--0-0-1/4----|
C|-0-1-1/4--0-0-1/4----| x3
            x

 then end it short;

d|------------|
A|------------|
F|------------|
C|-0-1-1/4--0-|
G|-0-1-1/4--0-|
C|-0-1-1/4--0-| x1
            

d|------------------------------------------------------------------------|
A|------------------------------------------------------------------------|
F|------------------------------------------------------------------------|
D|----------------------------8-11-10-------------------------------------|
G|-6---5------3h5-3h5----6----6-9--8------6---5---3h5-3h5----6-----5---5--|
C|---0---0-00---------00---00----------00---0---0---------00---0-6---3----| 
     x   x xx         xx   xx          xx   x   x         xx   x           

 play to finish.

 another guitar comes in with yet another riff i havent bothered to work
 out at the end, but you can live without it.

 thats it.  have fun :)

===============================================================================
Tap to rate this tab
# A B C D E F G H I J K L M N O P Q R S T U V W X Y Z