Song name
# A B C D E F G H I J K L M N O P Q R S T U V W X Y Z

Chimaira - Worthless tab

-------------------------------------------------------------------------------
			  Worthless - Chimaira
-------------------------------------------------------------------------------

ARTIST:Chimaira
SONG:Worthless
ALBUM:Resurrection
TABBED BY:h8urlife
TUNING: C G C F A D 



          (Intro)
d|----------------------------|
A|----------------------------|
F|--8~--------8~--------------|
C|--x---------x---------------|
G|--6~--------6~------x\\\\\--|
C|----------------------------| 



d|-----------------------------------------------------------------------|
A|-----------------------------------------------------------------------|
F|-----------------------------------------------------------------------|
C|-----------------------------------------------------------------------|
G|-1---1-------1-1-----1-1---1-------1-1-----1-1---1-------1-1-----1-0~--|
C|-1-0-1-0-0-0-1-1-0-0-1-1-0-1-0-0-0-1-1-0-0-1-1-0-1-0-0-0-1-1-0-0-1-0~--| 
     x   x x x     x x     x   x x x     x x     x   x x x     x x     



d|-----------------------------------------------------------|
A|-----------------------------------------------------------|
F|-----------------------------------------------------------|
C|--5-5-5--------5-5-5--------5-5-5--------------------------|
G|--3-3-3--------3-3-3--------3-3-3--------------------------|
C|--------555555-------555555-------555555-5-555555-5-555555-|
                                           x        x 

d|---------------------------------------------|
A|---------------------------------------------|
F|---------------------------------------------|
C|--5-5-5--------5-5-5--------5-5-5---------3--|
G|--3-3-3--------3-3-3--------3-3-3--5-4-2--1--|
C|--------555555-------555555--------5-4-2-----|




d|-----------------------------------------------------------|
A|-----------------------------------------------------------|
F|-----------------------------------------------------------|
C|--5-5-5--------5-5-5--------5-5-5--------------------------|(3x)
G|--3-3-3--------3-3-3--------3-3-3--------------------------|
C|--------555555-------555555-------555555-5-555555-5-555555-|
                                           x        x 

d|---------------------------------------------|
A|---------------------------------------------|
F|---------------------------------------------|
C|--5-5-5--------5-5-5--------5-5-5---------3--|(1x)
G|--3-3-3--------3-3-3--------3-3-3--5-4-2--1--|
C|--------555555-------555555--------5-4-2-----|




d|----------------------------------------------------------------------------------------------------|
A|----------------------------------------------------------------------------------------------------|
F|----------------------------------------------------------------------------------------------------|
C|--------------------------------------------------------------------5-5-5-------5-5-5-------5-5-----|(2x)
G|-1---1-------1-1-----1-1---1-------1-1-----1-1---1-------1-1-----1--3-3-3-------3-3-3-------3-3-----|
C|-1-0-1-0-0-0-1-1-0-0-1-1-0-1-0-0-0-1-1-0-0-1-1-0-1-0-0-0-1-1-0-0-1--------5-5-5-------5-5-5-----5-5-| 
     x   x x x     x x     x   x x x     x x     x   x x x     x x 

d|-------------------------------------------|
A|-------------------------------------------|
F|-------------------------------------------|
C|-3-------3------3------3-------1------0----|(2x)
G|-3---5---3---5--3--5---3---4---1---2--0--1-|
C|-----5-------5-----5-------4-------2-----1-| 



        At (2:12)


d|-------------------|------------------------|
A|-------------------|------------------------|
F|-------------------|------------------------|
C|-----------3-------|------------------------|(6x)
G|--5--4--2--1--5--4-|-1---1-------1-1-----1--|
C|--5--4--2-----5--4-|-1-0-1-0-0-0-1-1-0-0-1--|
                         x   x x x     x x 


          Under Solo:

d|-----------------------------------------------------------|
A|-----------------------------------------------------------|
F|-----------------------------------------------------------|
C|--5-5-5--------5-5-5--------5-5-5--------------------------|
G|--3-3-3--------3-3-3--------3-3-3--------------------------|
C|--------555555-------555555-------555555-5-555555-5-555555-|
                                           x        x 

d|---------------------------------------------|
A|---------------------------------------------|
F|---------------------------------------------|
C|--5-5-5--------5-5-5--------5-5-5---------3--|
G|--3-3-3--------3-3-3--------3-3-3--5-4-2--1--|
C|--------555555-------555555--------5-4-2-----|

                                           
d|-----------------------------|
A|-----------------------------|
F|-----------------------------|
C|-----------------------------|(many times)
G|-----------------------------|
C|-5-555555-5-555555-5-555555--|
   x        x        x  

d|---------------------------------------------|
A|---------------------------------------------|
F|---------------------------------------------|
C|--5-5-5--------5-5-5--------5-5-5---------3--|
G|--3-3-3--------3-3-3--------3-3-3--5-4-2--1--|
C|--------555555-------555555--------5-4-2-----|  





d|-------------------------------------------------------------------|
A|-------------------------------------------------------------------|
F|-------------------------------------------------------------------|
C|-------------------------------------------------------------------|
G|-1---1-------1-1-----1-1---1-------1-1-----1-1---1-------1-1-----1-|
C|-1-0-1-0-0-0-1-1-0-0-1-1-0-1-0-0-0-1-1-0-0-1-1-0-1-0-0-0-1-1-0-0-1-|
     x   x x x     x x     x   x x x     x x     x   x x x     x x      


                            PLEASE RATE AND COMMENT!
Tap to rate this tab
 
# A B C D E F G H I J K L M N O P Q R S T U V W X Y Z