Song name
# A B C D E F G H I J K L M N O P Q R S T U V W X Y Z

Chimaira - Pleasure In Pain tab

-------------------------------------------------------------------------------
			  Pleasure in Pain - Chimaira
-------------------------------------------------------------------------------

ARTIST:Chimaira
SONG:Pleasure in Pain
ALBUM:Resurrection
TABBED BY:h8urlife
TUNING: C G C F A D 




          (Intro)                             
d|--------------------------------|
A|--------------------------------|
F|--------------------------------|
C|--------------------------------|
G|-9-9999-9-9--9-999--9-999-10^---|
C|--------------------------------|
   x xxxx x x  x xxx  x xxx


          

            (Guitar 1)                       (Guitar 2)           
d|-----------------------------|----------------------------------------|
A|-----------------------------|----------------------------------------|
F|-----------------------------|-17-------17-------17-------17-------17-|
C|-----------------------------|----15-15----15-15----15-15----15-15----|
G|----3-3333-3-3--3-333--3-333-|----------------------------------------|
C|-4^-3-3333-3-3--3-333--3-333-|----------------------------------------|
      x xxxx x x  x xxx  x xxx




         (At 0:21)
d|-----------------------------|
A|-----------------------------|
F|-----------------------------|
C|-----------------------------|
G|----2-2222-2-2--2-222--2-222-|
C|-3^-2-2222-2-2--2-222--2-222-|
      x xxxx x x  x xxx  x xxx




d|--------------------------------------------------------------------|
A|--------------------------------------------------------------------|
F|---------------------------8-8--------------------------------------|
C|--------------------------------------------------------------------|
G|----1-1111------1-111------6-6------1-1111------1-111------6-5------|
C|-2^-1-1111-1-1--1-111-1-1--------2^-1-1111-1-1--1-111-1-1-------3-4-|
      x xxxx      x xxx               x xxxx      x xxx 


d|---------------------------------------------------------------------------|
A|---------------------------------------------------------------------------|
F|---------------------------8-8---------------------------------------------|
C|---------------------------------------------------------------------------|
G|----1-1111------1-111------6-6------1-1111------1-111------6-5-------3-5-6-|
C|-2^-1-1111-1-1--1-111-1-1--------2^-1-1111-1-1--1-111-1-1-------3-4--------|
      x xxxx      x xxx               x xxxx      x xxx



                          (Chorus)

d|---------------------------------------------------------------------|
A|---------------------------------------------------------------------|
F|----7-7-7-7-7-7-7-7-7-8-8-8-8-8-8-8-8-8------------------------------|
C|---------------------------------------------------------------------|
G|----5-5-5-5-5-5-5-5-5-6-6-6-6-6-6-6-6-6------------------------------|
C|-2^--------------------------------------1-1-1-1-1-1-1-1-1-3-3-3-3-3-|


d|-------------------------------------------------------------------|
A|-------------------------------------------------------------------|
F|-8-7--7-7-7-7-7-7-7-7-8-8-8-8-8-8-8-8------------------------------|
C|-------------------------------------------------------------------|
G|-6-5--5-5-5-5-5-5-5-5-6-6-6-6-6-6-6-6------------------------------|
C|---------------------------------------1-1-1-1-1-1-1-1-1-3-3-3-3-3-|



                 (At 2:00 )


d|--------------------------------------------------------------|
A|--------------------------------------------------------------|
F|--------------------------------------------------------------|
C|--------------------------------------------------------------|
G|-0-0000-0-0--0-000-0-0--6-5------0-0000-0-0--0-3-5-6--6-5-----|
C|-0-0000-0-0--0-000-0-0------3-4^-0-0000-0-0--0-3-5-6------3-4-|
   x xxxx x x  x xxx x x           x xxxx x x  x x x x

d|-----------------------------------------------------------|
A|-----------------------------------------------------------|
F|-----------------------------------------------------------|
C|-----------------------------------------------------5-7-8-|
G|-0-0000-0-0--0-000-0-0--6-5------0-0000-0-0--0-3-5-6-3-5-6-|
C|-0-0000-0-0--0-000-0-0------3-4^-0-0000-0-0--0-3-5-6-------|
   x xxxx x x  x xxx x x           x xxxx x x  x 

d|--------------------------------------------------------------|
A|--------------------------------------------------------------|
F|--------------------------------------------------------------|
C|--------------------------------------------------------------|
G|-0-0000-0-0--0-000-0-0--6-5------0-0000-0-0--0-3-5-6--6-5-----|
C|-0-0000-0-0--0-000-0-0------3-4^-0-0000-0-0--0-3-5-6------3-4-|
   x xxxx x x  x xxx x x           x xxxx x x  x x x x

d|----------------------------------------------------------|
A|----------------------------------------------------------|
F|----------------------------------------------------------|
C|-----------------------------------------------------7-5--|
G|-0-0000-0-0--0-000-0-0--6-5------0-0000-0-0--0-3-5-6-5-3--|
C|-0-0000-0-0--0-000-0-0------3-4^-0-0000-0-0--0-3-5-6------|
   x xxxx x x  x xxx x x           x xxxx x x  x 





d|---------------------------------------------------------------------|
A|---------------------------------------------------------------------|
F|----7-7-7-7-7-7-7-7-7-8-8-8-8-8-8-8-8-8------------------------------|
C|---------------------------------------------------------------------|
G|----5-5-5-5-5-5-5-5-5-6-6-6-6-6-6-6-6-6------------------------------|
C|-2^--------------------------------------1-1-1-1-1-1-1-1-1-3-3-3-3-3-|


d|-------------------------------------------------------------------|
A|-------------------------------------------------------------------|
F|-8-7--7-7-7-7-7-7-7-7-8-8-8-8-8-8-8-8------------------------------|
C|-------------------------------------------------------------------|
G|-6-5--5-5-5-5-5-5-5-5-6-6-6-6-6-6-6-6------------------------------|
C|---------------------------------------1-1-1-1-1-1-1-1-1-3-3-3-3-3-|




d|--------------------------------------------------------------------|
A|--------------------------------------------------------------------|
F|---------------------------8-8--------------------------------------|
C|--------------------------------------------------------------------|
G|----1-1111------1-111------6-6------1-1111------1-111------6-5------|
C|-2^-1-1111-1-1--1-111-1-1--------2^-1-1111-1-1--1-111-1-1-------3-4-|
      x xxxx      x xxx               x xxxx      x xxx 


d|---------------------------------------------------------------------------|
A|---------------------------------------------------------------------------|
F|---------------------------8-8---------------------------------------------|
C|---------------------------------------------------------------------------|
G|----1-1111------1-111------6-6------1-1111------1-111------6-5-------3-5-6-|
C|-2^-1-1111-1-1--1-111-1-1--------2^-1-1111-1-1--1-111-1-1-------3-4--------|
      x xxxx      x xxx               x xxxx      x xxx



                                  PLEASE RATE AND COMMENT!                    
Tap to rate this tab
 
# A B C D E F G H I J K L M N O P Q R S T U V W X Y Z