Song name
# A B C D E F G H I J K L M N O P Q R S T U V W X Y Z

Chin Up Chin Up - This Harness Cant Ride Anything tab

e|----------------------------------------------------|
B|--12-13-------------------12-13---------------------|
G|----------14-12-12-12-12----------14-12-12-12-12----|
D|----------------------------------------------------|
A|----------------------------------------------------|
E|----------------------------------------------------|

e|----------------------------------------------------|
B|---------12-15------------------12-15---------------|
G|--12-14---------12-12-12-12-14--------12-12---------|
D|----------------------------------------------------|
A|----------------------------------------------------|
E|----------------------------------------------------|

First Guitar tab, IM or E-Mail me if you need help!

Mee443@hotmail.com
Tap to rate this tab
# A B C D E F G H I J K L M N O P Q R S T U V W X Y Z