Guitaretab - guitar tabs
Song name
# A B C D E F G H I J K L M N O P Q R S T U V W X Y Z

Chin Up Chin Up - We Should Never Have Lived Like We Were Skyscrapers tab

Band: Chin Up Chin Up (www.chinupchinup.com)
Song: We should never have lived like we were skyscrapers
Tabber: Andrew Biles

I've basically put this tab into four sections which you should be able to
differentiate between and it just flows from start to finish and back around again.

Both guitars standard tuning.

|----------------------------|--------------------------------|
|----------------------------|-------7------------------------|
|-----7-9-7--7-7----7-7------|-----9---9-7--------------------|
|---9------------9------9--7-|---9---------9-9/12\9--9-9p7--5-|
|-7--------------------------|-7------------------------------|
|----------------------------|--------------------------------|
  Guitar 1                x2                               x2


|-----------------------------|-----------------------------|
|-----------------------------|-----------------------------|
|-----------------/7-4--------|-----------------/7-4--------|
|----------------------7-7-5--|-9-9-9-9-9-9-9-9------7-7-5--|
|-5-5-5-5-5-5-5-5-------------|-7-7-7-7-7-7-7-7-------------|
|-3-3-3-3-3-3-3-3-------------|-----------------------------|
  Guitar 2                 x2                            x2


_____________________________________
[ Tab from: http://www.guitaretab.com/c/chin-up-chin-up/61917.html ]
|-------------------------------------------------------------|-----------------|
|-------------------------------------------------------------|-----------------|
|-------------------------------7--7-7-7-7-7-7-9--9-9-9-9-9-9-|-7-9-9-9-9-9-9-9-|
|-7--7-7-7-7-7-7/9--9-9-9-9-9-9-------------------------------|-----------------|
|-------------------------------------------------------------|-----------------|
|-------------------------------------------------------------|-----------------|
                                                           x1                 x4

_____________________________________

|--------------------|
|--------------------|
|--------9---7-------|
|---9----------9-----|
|-7----7---7---------|
|--------------------|
  Guitar 1


|---10---10---10-----|-7--7-7-7-7-5-3--3-3-3-|
|-8----8----8----8---|-----------------------|
|--------------------|-----------------------|
|--------------------|-----------------------|
|--------------------|-----------------------|
|--------------------|-----------------------|
  Guitar 2

______________________________________

|----------------|-----------------|
|----------------|-----------------|
|---4----7---7---|--------7---7----|
|---5------5---5-|---9------5---5--|
|-5-5------------|-7-7-------------|
|----------------|-----------------|
  Guitar 1


|-7--7-7-7-7-5-3--3-3-3-|
|-----------------------|
|-----------------------|
|-----------------------|
|-----------------------|
|-----------------------|
  Guitar 2

any questions? andrewbiles@hotmail.com
Related for We Should Never Have Lived Like We Were Skyscrapers tab