Song name
# A B C D E F G H I J K L M N O P Q R S T U V W X Y Z

China Anne Mcclain - Stars Aligning tab

I love this song it's really good , well here is the tab i hope you enjoi it i did it 
pretty well i would say,



             Intro & Main Riff
E----------------------------------------------|
B---9-9-9-9s-6-6-6-6- -13-13-13-13-13s-8-8-8-8-|
G----------------------------------------------|
D----------------------------------------------|
A----------------------------------------------|
E----------------------------------------------|



            Verse/Chorus

     There telling me. Get back on ground     Forget my dreams just let....
E---------------------------------------------------------|
B----9-9-9-9-9-9------------------------------------------|
G----------------------6-6-6-6-6-6------------8-8-8-8-8-8-|
D----6-6-6-6-6-6-------6-6-6-6-6-6------------8-8-8-8-8-8-|
A----8-8-8-8-8-8-------4-4-4-4-4-4------------6-6-6-6-6-6-|
E---------------------------------------------------------|


  can't be afraid anymore,  im getting ready to shine
E---------------------------------------------------------|
B---9--9--8--9--9--8--9- ,--9--9--8--9--9--8s--1----------|
G---------------------------------------------------------|
D---------------------------------------------------------|
A---------------------------------------------------------|
E---------------------------------------------------------|


 with they could all see me now , cause i am
E---------------------------------------------------------|
B-9-9-8-9-9-8-11,----9--11-13--9--------------------------|
G---------------------------------------------------------|
D---------------------------------------------------------|
A---------------------------------------------------------|
E---------------------------------------------------------|


     Breaking....... well that is it i hope you all like :)
E----------------|
B----9-9-9-9-9---|
G----------------|
D----6-6-6-6-6---|
A----8-8-8-8-8---|
E----------------|
Tap to rate this tab
 
# A B C D E F G H I J K L M N O P Q R S T U V W X Y Z