Song name
# A B C D E F G H I J K L M N O P Q R S T U V W X Y Z

Chinese Melody - Endless Love tab

Help us improve GuitareTab! Take a short survey!
trie my hardest on this..im 99% positive its correct..this my first tab so...


-------------------------------------------|
-----13------------------------------------|
--10---12~----10-12-13-15-17~~~------------|
-------------------------------------------|
-------------------------------------------|
-------------------------------------------|

------------------------------------------------------------|
------18--16-18-16---11-13~-------18-16/10-13h14p13----9----|
------------------------------------------------------------|
--15--------------------------------------------------------|
--------------------------------15--------------------------|
------------------------------------------------------------|

---------------------|
----13-11------------|
-10-------12/10~~----|
---------------------|
---------------------|
---------------------|   all of the 2X


--------------------------------------------|
--------------------------------------------|
-10-12-13-15-17/13-12-8~-----10-13-15-17-17~|
--------------------------------------------|
--------------------------------------------|
--------------------------------------------|

--------------------------------------------|
--------------------------------------------|
-10-12-13-15-17/13-12-8~-----10-13-15-13-13~|
--------------------------------------------|
--------------------------------------------|
--------------------------------------------|

then...



-------------------------------------------|
-----13------------------------------------|
--10---12~----10-12-13-15-17~~~------------|
-------------------------------------------|
-------------------------------------------|
-------------------------------------------|

------------------------------------------------------------|
------18--16-18-16---11-13~-------18-16/10-13h14p13----9----|
------------------------------------------------------------|
--15--------------------------------------------------------|
--------------------------------15--------------------------|
------------------------------------------------------------|

---------------------|
----13-11------------|
-10-------12/10~~----|
---------------------|
---------------------|
---------------------|



--------------------------------------------|
--------------------------------------------|
-10-12-13-15-17/13-12-8~-----10-13-15-17-17~|
--------------------------------------------|
--------------------------------------------|
--------------------------------------------|

--------------------------------------------|
--------------------------------------------|
-10-12-13-15-17/13-12-8~-----10-13-15-13-13~|
--------------------------------------------|
--------------------------------------------|
--------------------------------------------|

somewhere between here  u do this
-------------------------------------------------|
---------------------------13-11-9-11-9-11-13----|
-10-12-13-15-17/13-12-8~-------------------------|
-------------------------------------------------|
-------------------------------------------------|
-------------------------------------------------|

-------------------------------------------|
--------------------------13-11-9-11-9-9---|
-10-12-13-15-17/13-12-8~-------------------|
-------------------------------------------|
-------------------------------------------|
-------------------------------------------|



ENDING

--------------------------------------------|
--------------------------------------------|
-13-15-17-13-12--8-------10-13-12~-8/10-----|
--------------------------------------------|
--------------------------------------------|
--------------------------------------------|

there u have it! any comment or Q's send em' to hernandezdanni@yahoo.com
Related for Endless Love tab