Guitaretab - guitar tabs
Song name
# A B C D E F G H I J K L M N O P Q R S T U V W X Y Z

Chinese Melody - There Is Only You tab

----------------------------------------------|
----------------------------------------------|
------5-7/9-9-7-9-9-7-5-7-5-------------------|        <~~ intro
--5-7-----------------------7-7---------------|
----------------------------------------------|
----------------------------------------------|
[ Tab from: http://www.guitaretab.com/c/chinese-melody/37393.html ]
--------------------------------------|
----------5-5--5-5--------------------|
------5-7----7----7-5-7-5-------------|
--5-7---------------------7-7---------|
--------------------------------------|
--------------------------------------|
                           []= (pause a little)
-------------------5---------------------------------------------------|
---------5-5--5-5-8---8-5-5-[]-5-5--------------5-5-6-5------5-5-------|
------5-7----7---------------------7-7-5-7-5------------7-5-7----------|
--5-7----------------------------------------7-------------------------|
-----------------------------------------------------------------------|
-----------------------------------------------------------------------|

-----------------------------|
-5-5-------------------------|
----7-7-5-7-5----------------|
--------------7--5-5---------|
-----------------------------|
-----------------------------|

my friend tab the body and i tab the intro so i dont wanan take all the credit
so its tuan and vince got this song not just vince =D
Related for There Is Only You tab