Song name
# A B C D E F G H I J K L M N O P Q R S T U V W X Y Z

Chingo Bling - La Bella Musica tab

E|------------------------------------------------------------------|
A|-2-2222-222-------------------------------------------------------|
D|-2-2222-222-2-2222-2/40-------------------------------------------|   x2
G|-1-1111-111-2-2222-2/40-------------------------------------------|
B|------------1-1111-1/30-------------------------------------------|
E|------------------------------------------------------------------|

E|------------------------------------------------------------------|
A|-22-222-222-222---------------------------------------------------|
D|-22-222-222-222-222-222-222-222/40--------------------------------|   x2
G|-11-111-111-111-222-222-222-222/40--------------------------------|
B|----------------111-111-111-111/30--------------------------------|
E|------------------------------------------------------------------|

that's all we have for now. we will update these later.....

                         Thanks for the support,
                            Chingo Bling
Tap to rate this tab
# A B C D E F G H I J K L M N O P Q R S T U V W X Y Z