Song name
# A B C D E F G H I J K L M N O P Q R S T U V W X Y Z

Chingon - Malaguena Salerosa tab

Malaguena Salerosa
Classical Spanish Guitar

I have no idea if this is right, I learnt this song watching Antonio
Banderas at the start of Once Upon a Time in Mexico and tried to
figure out where his fingers were! This is what I came up with.

e |-----------------------------------------------------|
b |----------7---------7---------7-5---5-----------6----|
g |----7---7-----7---7-----7---7-----7-------7---7------|
d |--7---7-----7---7-----7---7-------------7---7--------|
a |-----------------------------------------------------|
E |-----------------------------------------------------|

e |-----------------------------------------------------|
b |----------6s8r-6-6-5-5---5-----------8---------8s10r-|
g |----7---7-------------7--------7---7-----7---7-------|
d |--7---7----------------------7---7-----7---7---------|
a |-----------------------------------------------------|
E |-----------------------------------------------------|

e |-----------------------------------------------------|
b |--8-8-6-6-5-6---6-7-9-7-6---7-6-----6----------------|
g |--------------------------8-----8-6---8-6-5-8-6-5----|
d |--------------------------------------------------7--|
a |-----------------------------------------------------|
E |-----------------------------------------------------|

e |-----------------------0------------------------------|
b |---------6-7-6---------1------------------------------|
g |---------------8-6-5---2-strum------------------------|
d |-6h7p6-----------------2------------------------------|
a |-----------------------0------------------------------|
E |-----------------------0------------------------------|



Tap to rate this tab
# A B C D E F G H I J K L M N O P Q R S T U V W X Y Z