Song name
# A B C D E F G H I J K L M N O P Q R S T U V W X Y Z

Chingon - Malaguea Salerosa tab

~ Chingon - Malagueña Salerosa - Kill Bill Vol. 2 O.S.T. ~

~ Kill Bill Vol. 2 Version - very easy! ~

first of all this tab is not fully of myself. most of all it's of GaryGuitarz who has
posted it online. i am just adding it because this version is not entered as a song from
i am not sure but i think GaryGuitarz took the version of Once Upon A Time In Mexico 
Banderas plays it in a scene. moreover i figured out how to play it easier. and it's
two notes higher in the Kill Bill Vol. 2 version. however thanks to GarygGuitarz for 
really the best version for this tab. except of:


e|-------------------------------------------------------------|
B|--------------7---------------7---------------7--------------|
G|-----8-----8---------8-----8---------8-----8----9-8-9--------|
D|--9-----9-----9---9-----9-----9----9----9-----9--------------|
A|-------------------------------------------------------------|
E|-------------------------------------------------------------|


e|--------------------------------------------------------|
B|--------------8------------------8---10-8-8-------------|
G|-----9-----9-----------9------9-------------11-9-11-----|
D|--9-----9-----9----9------9------9----------------------|
A|--------------0------------------0----------------------|
E|--------------------------------------------------------|

e|--------------5-----------------5---7--5-5---------|
B|-----7-----7-----------7-----7-------------8-7-8---|
G|--7-----7-----7----7-----7------7------------------|
D|---------------------------------------------------|
A|---------------------------------------------------|
E|---------------------------------------------------|


e|------7--------------------------------------------|
B|-8-10--10--8-7-10-8-7---8-7-----7------------------|
G|----------------------9------9-8--9-8--------------|
D|--------------------------------------9------------|
A|---------------------------------------------------|
E|---------------------------------------------------|


by Gnz
Tap to rate this tab
 
# A B C D E F G H I J K L M N O P Q R S T U V W X Y Z