Chingon - Machete Theme tab

It's my first tab so...

Intro
|----19-----------------------|
|-18----v19-------------------|
|-----------------------------|
|-----------------------------|
|-----------------------------|
|-----------------------------|

|-------------------------|
|-------------------------|
|-------------------------|
|-------------------------|     4 times       
|-------------------------|
|--2--3--2--2--5--2-------|


Main Part
|-------------------------------------------------|
|-------------------------------------------------|
|-------------------------------------------------|
|-------------------------------------------------|  many times
|-------------------------------------------------|
|-------------------------------------------------|
|--3--2--2--3--2--2--3--2--5--2--2--5--2--2--5--2-|

Bridge
|--------------|
|--------------|
|--6-----5-----|
|--6--5--5--3--|
|--4--5--3--3--|
|-----3-----2--|

Please leave your comment.
Tap to rate this tab
 
# A B C D E F G H I J K L M N O P Q R S T U V W X Y Z