Song name
# A B C D E F G H I J K L M N O P Q R S T U V W X Y Z

Chingon - Malaguena Salerosa tab

This is Exactly how I play it and i'm pretty sure its's right.This song is addicting and 
awesome when you can play it fast.

-------------------------------------------------------------------|
-8-8-12--8-8-12--8-8-12-11-10-11--7-7-11--7-7-11--7-7-11-10-9-10---|
9-9-----9-9-----9-9--------------8-8-----8-8-----8-8---------------|
-------------------------------------------------------------------|
-------------------------------------------------------------------|
-------------------------------------------------------------------|

-------------------------------------------------------------------|
-8-8-12--8-8-12--8-8-12-11-10-11--7-7-11--7-7-11--7-7-11-10-9-10---|
9-9-----9-9-----9-9--------------8-8-----8-8-----8-8---------------|
-------------------------------------------------------------------|
-------------------------------------------------------------------|
-------------------------------------------------------------------|
I love this part!!
-7--8--10-8-7----8-7------7----------------------------------------|
--------------10-----10-8---10-8-7-10-8-7--------------------------|
-------------------------------------------8-----------------------|
-------------------------------------------------------------------|
-------------------------------------------------------------------|
-------------------------------------------------------------------|

This is my first tab :)
Tap to rate this tab
# A B C D E F G H I J K L M N O P Q R S T U V W X Y Z