Song name
# A B C D E F G H I J K L M N O P Q R S T U V W X Y Z

Chingon - Alacran Y Pistolero tab

Intro:x2

|--------------------------------------------------------------------|
|-0---------0----1------0---------0----0-------0---------0----1------|
|---------0---2-----2-----------2---0-----0------------0---2-----2---|
|-------2---------------------1----------------------2---------------|
|-----2-----------------2---2----------------------2-----------------|
|-0-0---------------------0--------------------0-0-------------------|

|-2-2---2---2-0---|
|-0-0---0---0-0---|
|-2-2---2---2-0---|
|-1-1---1---1-2---|
|-2-2---2---2-2---|
|-------------0---|

Verse:x4
 Em Am B7 Em
|-0--0--2--0-|
|-0--1--0--0-|
|-0--2--2--0-|
|-2--2--1--2-|
|-2--0--2--2-|
|-0--------0-|

Chorus:x2                    last time
  D  G  D  G   Em Am B7 Em  Am  B7
|-2--3--2--3----0--0--2--0-|-0---2-|
|-3--3--3--3----0--1--0--0-|-1---0-|
|-2--0--2--0----0--2--2--0-|-2---2-|
|-0--0--0--0----2--2--1--2-|-2---1-|
|----2-----2----2--0--2--2-|-0---2-|
|----3-----3----0--------0-|-------|

couldn't get the solo sorry
Tap to rate this tab
# A B C D E F G H I J K L M N O P Q R S T U V W X Y Z