Song name
# A B C D E F G H I J K L M N O P Q R S T U V W X Y Z

Chingon - Cherrys Dance Of Death tab

Chingon  Cherry's Dance of Death

e|--------------------2-3-5-2h3p2--0-2-3-2-------------------------------------|
B|------------------------------------------2-2--------------------------------|
G|--3h4-3-3----------------------------------------3-3/4-6-4-3-----------------|
D|----------5-4----------------------------------------------------------------|
A|-----------------------------------------------------------------------------|
E|-----------------------------------------------------------------------------|
(around the 19th second and again at 33d)
e|------------------3--2-------------------------------------------------------|
B|-------------3-2-------------------------------------------------------------|
G|----3/4-3-3------------------------------------------------------------------|
D|-----------------------------------------------------------------------------|
A|-----------------------------------------------------------------------------|
E|-----------------------------------------------------------------------------|
( Then a variation of that a bit later)
e|--------------------2h3p2-------------------------------------------------------|
B|-------------2h3p2--------------------------------------------------------------|
G|----3/4-3-3---------------------------------------------------------------------|
D|--------------------------------------------------------------------------------|
A|--------------------------------------------------------------------------------|
E|--------------------------------------------------------------------------------|


This is the main riff of the song, it goes through the entire song
e|--------------------------------------------------------------------|
B|--------------------------------------------------------------------|
G|--------------------------------------------------------------------|
D|--------------------------------------------------------------------|
A|--------------------------------------------------------------------|
E|--2-2-0-2-3-2-0-2---------------------------------------------------|

Also played on the high E string
e|--2-2-0-2-3-2-0-2---------------------------------------------------|
B|--------------------------------------------------------------------|
G|--------------------------------------------------------------------|
D|--------------------------------------------------------------------|
A|--------------------------------------------------------------------|
E|--------------------------------------------------------------------|

And below the 12th fret on the E string as well
e|-14-14-12-14-15-14-12-14--------------------------------------------|
B|--------------------------------------------------------------------|
G|--------------------------------------------------------------------|
D|--------------------------------------------------------------------|
A|--------------------------------------------------------------------|
E|--------------------------------------------------------------------|

There are a lot of runs played on a nylon string during the song as well
these are only a few (these are all on the high E)

e|-1515151515--131313--121212------------------|

e|-1212121212--101010--999-------------------|

Tabbed by Miguel Andrade
Miggy01@hotmail.com
Tap to rate this tab
# A B C D E F G H I J K L M N O P Q R S T U V W X Y Z