Song name
# A B C D E F G H I J K L M N O P Q R S T U V W X Y Z

Chiodos - Pirates And Rebels tab

----------------------------------------------------------------------------
			     Pirates - Chiodos
----------------------------------------------------------------------------
Tabbed by: Jesse Montgomery
Email: Jss_montgomery@yahoo.com

Tuning:Drop D
Play once:
e|--------------------------------------------------------------|
B|--------------------------------------------------------------|
G|-----11-------14-----11-------14-----11-------14-----9-----7--|
D|--------------------------------------------------------------|
A|-9-9----12-12----9-9----12-12----9-9----12-12----7-7---5-5----|
D|--------------------------------------------------------------|
   ...    .....    ...    .....    ...    .....    ...   ...
play once:
e|-----------------------------------------------------------|
B|-----------------------------------------------------------|
G|-11-11-14-14-14-11-11-14-14-14-11-11-14-14-14------9-----7-|
D|-----------------------------------------------------------|
A|-9--9--12-12-12-9--9--12-12-12-9--9--12-12-12--7-7-7-5-5-5-|
D|-----------------------------------------------------------|
                                                 ...   ...
Play four times: In the song it sounds like its only played twice because the last two 
are really quiet.
e|-------------------------------------------------------------------|
B|-------------------------------------------------------------------|
G|-11-11-11-14-14-14-11-11-11-14-14-14-11-11-11-14-14-14-9-9-9-7-7-7-|
D|-------------------------------------------------------------------|
A|-9--9--9--12-12-12-9--9--9--12-12-12-9--9--9--12-12-12-7-7-7-5-5-5-|
D|-------------------------------------------------------------------|

e|----------------------------------------------------------|
B|----------------------------------------------------------|
G|-----11-------14-----11-------14-----11-------14----------|
D|----------------------------------------------------------|
A|-9-9-9--12-12-12-9-9-9--12-12-12-9-9-9--12-12-12--5-5-0-0-|
D|--------------------------------------------------5-5-0-0-|
   ....   .....    .....  .....    ...    .....     .......
Play 4 times:
e|------------------------------------------------------------------|
B|------------------------------------------------------------------|
G|11/12\11-11/12\11-11/12\11-11/12\11----------14-14----------14-14-|
D|------------------------------------------------------------------|
A|9-/10\9--9-/10\9--9-/10\9--9-/10\9--0--0-0-0-12-12-0--0-0-0-12-12-|
D|------------------------------------0--0-0-0-------0--0-0-0-------|
                                      ........       ........

e|----------------------------------------------------------------------|
B|----------------------------------------------------------------------|
G|-11-11-11-11-11-11-11-11-12-12-12-12-12-12-12-12-14-14-14-14-14-14-14-|
D|----------------------------------------------------------------------|
A|-9--9--9--9--9--9--9--9--10-10-10-10-10-10-10-10-12-12-12-12-12-12-12-|
D|----------------------------------------------------------------------|

e|-------------------------|
B|-------------------------|
G|-16-16-16-16-19-19-19-19-|
D|-------------------------|
A|-14-14-14-14-17-17-17-17-|
D|-------------------------|

e|-----------19-------|
B|--------------20-19-|
G|--------------------|
D|--------------------|
A|-9---9-7-9----------|
D|-9---9-7-9----------|
This is pretty much all the parts you need.

| /  slide up
| \  slide down
| h  hammer-on
| p  pull-off
| ~  vibrato
| +  harmonic
| x  Mute note
============================================================================
Tap to rate this tab
# A B C D E F G H I J K L M N O P Q R S T U V W X Y Z