Guitaretab - guitar tabs
Song name
# A B C D E F G H I J K L M N O P Q R S T U V W X Y Z

Chiodos - Lexington tab

"LEXINGTON"

this is just the basics of the song. i didnt include all the "little" guitar licks cause 
dont know all of them.

then in the beginning after the piano comes in there is a twist effect if your pedal has that.

Intro:
|-18-17----18-17----18-17----18-17---|
|------15-------15-------15-------15-|tremelo pick each note.
|------------------------------------|
|------------------------------------|
|------------------------------------|
|------------------------------------|

Pre-Chorus:
|----------------------------|
|-t11p8h10(x8)-t13p10h11(x8)-|
|----------------------------|x2
|----------------------------|
|----------------------------|
|----------------------------|

Chorus:
|-----------------------------------------------------------------------------------------|
|-----------------------------------------------------------------------------------------|
|-12-12-12121212-12-12-12121212-111-1111-111-1111-8-8-8888-8-8-8888-7-7-7777-1111-1111----|x2
|-x--x--x-x-x-x--x--x--x-x-x-x--x-x-xxxx-x-x-xxxx-x-x-xxxx-x-x-xxxx-x-x-xxxx-x-xx-xxxx----|
|-10-10-10101010-10-10-10101010-9-9-9999-9-9-9999-6-6-6666-6-6-6666-5-5-5555-9-99-9999/10~|
|-----------------------------------------------------------------------------------------|

Pre-Chorus:
|----------------------------|
|-t11p8h10(x8)-t13p10h11(x8)-|
|----------------------------|x2
|----------------------------|
|----------------------------|
|----------------------------|
[ Tab from: http://www.guitaretab.com/c/chiodos/105479.html ]
Chorus:
|-----------------------------------------------------------------------------------------|
|-----------------------------------------------------------------------------------------|
|-12-12-12121212-12-12-12121212-111-1111-111-1111-8-8-8888-8-8-8888-7-7-7777-1111-1111----|x2
|-x--x--x-x-x-x--x--x--x-x-x-x--x-x-xxxx-x-x-xxxx-x-x-xxxx-x-x-xxxx-x-x-xxxx-x-xx-xxxx----|
|-10-10-10101010-10-10-10101010-9-9-9999-9-9-9999-6-6-6666-6-6-6666-5-5-5555-9-99-9999/10~|
|-----------------------------------------------------------------------------------------|

next comes the lead up to the solo but i dont know it yet. as soon as
i figure it out ill put it up!

Solo:
|------7-10-7--------5-8-5--------5-8-5----|
|-----8------8------7-----7------6-----6---|
|----7--------7----5-------5----5-------5--|
|---8----------8--7---------7--7---------7-|
|-10-------------9------------8------------|
|------------------------------------------|

Solo cont.
|-----3-6-3---------6-10-6-----------8-11--------------10-13-10---------13-17-13----|
|----4-----4-------8------8--------10----10----------11--------11------15------15---|do
|---3-------3-----7--------7------8--------8-------10-----------10----14--------14--|each
|--5---------5---8----------8---10----------10---12--------------12--15----------15-|sweep
|-6------------10-------------12----------------13------------------17--------------|twice!
|-----------------------------------------------------------------------------------|

|-------------------|
|-15-14-20-18-17-18-|tremelo pick each note.
|-------------------|
|-------------------|
|-------------------|
|-------------------|


Pre-Chorus:
|----------------------------|
|-t11p8h10(x8)-t13p10h11(x8)-|
|----------------------------|x2
|----------------------------|
|----------------------------|
|----------------------------|

Chorus:
|-----------------------------------------------------------------------------------------|
|-----------------------------------------------------------------------------------------|
|-12-12-12121212-12-12-12121212-111-1111-111-1111-8-8-8888-8-8-8888-7-7-7777-1111-1111----|x2
|-x--x--x-x-x-x--x--x--x-x-x-x--x-x-xxxx-x-x-xxxx-x-x-xxxx-x-x-xxxx-x-x-xxxx-x-xx-xxxx----|
|-10-10-10101010-10-10-10101010-9-9-9999-9-9-9999-6-6-6666-6-6-6666-5-5-5555-9-99-9999/10~|
|-----------------------------------------------------------------------------------------|

key:

t    tab
~    vibrato
x    muted note


brettw.
Related for Lexington tab
Advertisement will be closed in 10 seconds