Song name
# A B C D E F G H I J K L M N O P Q R S T U V W X Y Z

Chiodos - Intensity In Ten Cities Live Acoustic tab

Help us improve GuitareTab! Take a short survey!
Standard Tuning

This is my first tab and it sounds perfect. The ones I found already online were not
This version is played at live shows. It's extrememly easy, took just a few seconds to
out. After the Intro, I gave you the chords to play, but there isn't a set strumming 
Just listen on youtube to get the timing and strum however you want. Craig changes it
he plays it an there are a couple alterations in the song that are easy to pick up, like 
the end and at the bridges.

Intro:
-----------------------------------------------------------------|
-----------------------------------------------------------------|
-----------------------------------------------------------------|
---0-----0-----0-----0------0-------0-----0-----0-----0-----0----|
-----2-----2-----2-----2--------------2-----2-----2-----2--------|
-3-----3-----3-----3------3---3---2-----2-----2-----2-----2---2--|

-----------------------------------------------------------------|
-----------------------------------------------------------------|
---0-----0-----0-----0------0-------0-----0-----0-----0-----0----|
-----2-----2-----2-----2------2-------2-----2-----2-----2-----2--|
-2-----2-----2-----3------2-------3-----3-----3-----3-----3------|
-----------------------------------------------------------------|

-----------------------------------------------------------------|
-----------------------------------------------------------------|
---0-----0-----0-----0------0-------0-----0-----0-----0-----0----|
-----4-----4-----4-----4------4-------4-----4-----4-----4-----4--|
-5-----5-----5-----5------5-------5-----5-----5-----5-----5------|
-----------------------------------------------------------------|

x   x   x   x   x
x   x   x   x   x
x   x   0   x   0
0   0   2   2   4
2   2   2   3   5
3   2   x   x   x

I hope that was enough information for you to figure it out...good luck!

ksmitty1223@comcast.net for comments, corrections, questions, etc.
Related for Intensity In Ten Cities Live Acoustic tab