Song name
# A B C D E F G H I J K L M N O P Q R S T U V W X Y Z

Chiodos - Vacation To Hell tab

Okay i dont know why this was never tabbed but anyway
i gave it a shot. Im hoping that from this, someone
will come up with a better tab. I did my best so leave
lots of comments. I know chiodos has two guitarists but i
couldnt seperate them out in the song as you can see.
-Taylor

Chiodos: Vacation to hell

play it like this-

Intro x2
Chorus x2
Verse x1
Pre-Chorus x2
Chorus x2
Bridge x1
Bridge(2) x3
Chorus x2
(End on..)

Intro

e---------------------------------------------------------------------------|
B---------------------------------------------------------------------------|
G------9-9/11---9-9/11------------------------------------------------------|
D----99-------99-------9-9/11---9-11-9--------------------------------------|
A----77-------77-----99-------99--------------------------------------------|
E--------------------77-------77--------------------------------------------|

Chorus

e---------------------------------------------------------------------------|
B---------------------------------------------------------------------------|
G----99--99----------99--99-------------------------------------------------|
D----99--99--77--77--99--99--7-77777----------------------------------------|
A----77--77--77--77--77--77--7-77777----------------------------------------|
E------------55--55----------5-55555----------------------------------------|
                               *****PM

Verse

e---------------------------------------------------------------------------|
B---------------------------------------------------------------------------|
G----9999----------------------9999-----------------------------------------|
D----9999--9999--7777--99--77--9999--9999--7777--99--99--77-----------------|
A----7777--9999--7777--99--77--7777--9999--7777--99--99--77-----------------|
E----------7777--5555--77--55--------7777--5555--77--77--55-----------------|
                                                     **  **

Pe-Chorus

e---------------------------------------------------------------------------|
B---------------------------------------------------------------------------|
G---------------------------------------------------------------------------|
D----44-444-444-444--77-777-777-777-----------------------------------------|
A----44-444-444-444--77-777-777-777-----------------------------------------|
E----22-222-222-222--55-555-555-555-----------------------------------------|
     ** *** *** ***  ** *** *** ***

Bridge

e---------------------------------------------------------------------------|
B---------------------------------------------------------------------------|
G---------------------------------------------------------------------------|
D----777-6h7-9--777-9p7-6--777-6h7-9--777-9p7-6--77777777--99999999---------|
A----777--------777--------777--------777--------77777777--99999999---------|
E----555--------555--------555--------555--------55555555--77777777---------|
     ***        ***        ***        ***        ********  ********

e---------------------------------------------------------------------------|
B---------------------------------------------------------------------------|
G---------------------------------------------------------------------------|
D----77777777--99999999--777-6h7-9--777-9p7-6--777-6h7-9--777-9p7-6---------|
A----77777777--99999999--777--------777--------777--------777---------------|
E----55555555--77777777--555--------555--------555--------555---------------|
     ********  ********  ***        ***        ***        ***

Bridge 2

e---------------------------------------------------------------------------|
B---------------------------------------------------------------------------|
G----9999--------9999--------9999-------------------------------------------|
D----9999--9999--9999--7777--9999--9999--777-6h7-9--777-9p7-6---------------|
A----7777--9999--7777--7777--7777--9999--777--------777---------------------|
E----------7777--------5555--------7777--555--------555---------------------|
                                         ***        ***

       e-------|
  End  B-------|
  on   G----9--|
       D----9--|
       A----7--|
       E-------|
Tap to rate this tab
# A B C D E F G H I J K L M N O P Q R S T U V W X Y Z