Guitaretab - guitar tabs
Song name
# A B C D E F G H I J K L M N O P Q R S T U V W X Y Z

Chiodos - Ode To The 2nd Hour tab

ARTIST: CHIODOS
SONG: ODE TO THE SECOND HOUR
SUBMITTED BY:
TUNING: STANDARD
NOTE: OKAY THEY STRUM REALLY FAST SO I DONT REALLY KNOW IF I GOT THE NUMBERS OF THE 
RIGHT & ALSO I THINK GUITAR TWO PLAYS OTHER CHORDS DURING THE VERSES BUT I CANT REALLY HEAR 
THAT PROPERLY

INTRO AND VERSE 1

0.00  0.52
GUITAR ONE
E|------------------------------------------|
B|------------------------------------------|
G|--7---------------------------------------|
D|--7-x12---7-----99xxxx--77----5~---5------|
A|--5-------7-x12-99xxxx--77----5~---5-x6---|
E|----------5-----77xxxx--55----3~---3------|

0.39
GUITAR TWO
E|-10-10-9---------10-10-9----------10-10-10-9------------------------|
B|---------10--------------10------------------10-10-7-8-9-8-7-5------|
G|------------7-7-7-----------7-7-7------------------------------7----|
D|--------------------------------------------------------------------|
A|--------------------------------------------------------------------|
E|--------------------------------------------------------------------|

E|-10-10-9---------10-10-9-12---12-12-9-10-10-10-9--------------|
B|---------10--------------------------------------10-10-7-8~---|
G|------------7-7-7---------------------------------------------|
D|--------------------------------------------------------------|
A|--------------------------------------------------------------|
E|--------------------------------------------------------------|

CHORUS
0.54
GUITAR ONE
E|--------------------------------------|
B|--------------------------------------|
G|--7-----------------------------------|
D|--7-x7----7-----9----7------2--5------|
A|--5-------7-x7--9-x5-7-x5---4--5-x6---|
E|----------5-----7----5------4--3------|

1.09
GUITAR TWO
E|-------------------------------------------|
B|-------------------------------------------|
G|--7------9------11-----/12-------7-----9---|
D|--7-x12--9-x12--11-x6--/12-x6----7-x6--9---|
A|--5------7------9------/10-------5-----7---|
E|-------------------------------------------|

VERSE 2
1.24  2.10
GUITAR ONE
E|-----------------------------------------|
B|-----------------------------------------|
G|--7--------------------------------------|
D|--7-x12---7-----99xxxx--77----5~---5-----|
A|--5-------7-x12-99xxxx--77----5~---5-x6--|
E|----------5-----77xxxx--55----3~---3-----|
[ Tab from: http://www.guitaretab.com/c/chiodos/176736.html ]
1.56  2.09
GUITAR TWO
E|-10-10-9---------10-10-9----------10-10-10-9------------------------|
B|---------10--------------10------------------10-10-7-8-9-8-7-5------|
G|------------7-7-7-----------7-7-7------------------------------7----|
D|--------------------------------------------------------------------|
A|--------------------------------------------------------------------|
E|--------------------------------------------------------------------|

E|-10-10-9---------10-10-9-12---12-12-9-10-10-10-9-------------|
B|---------10--------------------------------------10-10-7-8~--|
G|------------7-7-7--------------------------------------------|
D|-------------------------------------------------------------|
A|-------------------------------------------------------------|
E|-------------------------------------------------------------|

CHORUS

2.41
GUITAR ONE (OR BOTH)

E|-------------------------|
B|-------------------------|
G|-------------------------|
D|--2-----4---5~--5--------|  2x
A|--2x4--4---5~--3-x7-----|
E|--0-----2---3~--3--------|

2.49
GUITAR ONE
E|-----------------------------------|
B|-------x--------x--------x---------|
G|--7--7-x--7--7--x--7--7--x--7--7---|
D|--7--7-x--7--7--x--7--7--x--7--5---|
A|--5--5-x--5--5--x--5--5--x--5--5---|
E|-----------------------------------|

2.50
GUITAR TWO
E|-------------------------------|
B|-------------------------------|
G|-------77--77-6-77--77-8-------|
D|-------------------------------|
A|------------------------------|
E|-------------------------------|

2.52
E|-------------------------------|
B|-------------------------------|
G|-------------------------------|
D|--2-----4---5~--5--------------|  x2
A|--2x4--4---5~--3-x7-----------|
E|--0-----2---3~--3--------------|

^^ REPEAT THIS TWICE ^^

3.10 PLAYED TIL THE END
E|--------------------------------------|
B|--------------------------------------|
G|--7-----------------------------------|
D|--7-x7----7-----9----7------2--5------|
A|--5-------7-x7--9-x5-7-x5---4--5-x6---|
E|----------5-----7----5------4--3------|

3.25 PLAYED UNTIL THE END
E|------------------------------------------------------|
B|------------------------------------------------------|
G|--7------9------12-----11-----9-----11----7------/9---|
D|--7-x12--9-x12--12-x3--11-x3--9-x6--11----7-x6---/9---|
A|--5------7------10------9-----7------9----5------/7---|
E|------------------------------------------------------|

END IN

E|-------|
B|-------|
G|--7~---|
D|--7~---|
A|--5~---|
E|-------|

THATS ALL I GOT I KNOW ITS NOT 100% BUT ITS OKAY :)
HAVE FUN :P
Related for Ode To The 2nd Hour tab