Song name
# A B C D E F G H I J K L M N O P Q R S T U V W X Y Z

Chiodos - Theres No Penguins In Alaska tab

#----------------------------------PLEASE NOTE---------------------------------#
#This file is the author's own work and represents their interpretation of the #
#song. You may only use this file for private study, scholarship, or research. #
#------------------------------------------------------------------------------##

                          THERE'S NO PENGUINS IN ALASKA
                             As recorded by Chiodos
                (From the 2005 Album ALL'S WELL THAT END'S WELL)

Words by Craig Owens

Music by Chiodos
Transcribed by Eli Morgan

Gtr I (D A D G B E) - 'right'
Gtr II (D A D G B E) - 'left'
Gtr III (D A D G B E) - 'dub'
Gtr IV (D A D G B E) - 'synth'

 Intro
  Cock Rock Q=216
 4/4
  Gtr I
  E E q  E E q    E E q  E E E E   +E  E q  q  q    E E q  q  Q
|---------------|----------------|----------------|---------------|
|---------------|----------------|----------------|---------------|
|-7-7-7--7-7-7--|-7-7-7--7-5-----|----------------|-5-5-5--5------|
|-7-7-7--7-7-7--|-7-7-7--7-5---8-|-(8)-8-8--8--8--|-5-5-5--5------|
|-5-5-5--5-5-5--|-5-5-5--5-3---8-|-(8)-8-8--8--8--|-3-3-3--3------|
|---------------|--------------8-|-(8)-8-8--8--8--|---------------|


 "She Loves Me..."
  Gtr I
   E  E  q   E  E  q      E   E  q   E  E E  E
|---------------------|------------------------|
|---------------------|------------------------|
|--7--7--7---7--7--7--|---7---7--7---7--5------|
|--7--7--7---7--7--7--|---7---7--7---7--5----8-|
|--5--5--5---5--5--5--|---5---5--5---5--3----8-|
|---------------------|----------------------8-|
|
| Gtr II
|  E  E  q   E  E  q      E   E  q   E  E E  E
|---------------------|------------------------|
|---------------------|------------------------|
|-10-10-10--10-10-10--|--10--10-10--10-12---14-|
|--x--x--x---x--x--x--|---x---x--x---x--x----x-|
|--8--8--8---8--8--8--|---8---8--8---8-10---12-|
|---------------------|------------------------|
|
| Gtr IV
|  W                     +W
|-13------------------|-(13)-------------------|
|---------------------|------------------------|
|-10------------------|-(10)-------------------|
|---------------------|------------------------|
|---------------------|------------------------|
|---------------------|------------------------|


      +E   E  q   q      q         E  E  q      q      q
|------------------------------|-----------------------------|
|------------------------------|-----------------------------|
|------------------------------|---5--5--5------5------5-----|
|-----(8)--8--8---8------8-----|---5--5--5------5------5-----|
|-----(8)--8--8---8------8-----|---3--3--3------3------3-----|
|-----(8)--8--8---8------8-----|-----------------------------|
|
|     +E   E  Q   E  E  +Q         Q     E  E  +E   E  E  E
|------------------------------|-----------------------------|
|------------------------------|-----------------------------|
|----(14)-14-14--14-15-(15)----|--12----12-12-(12)-12-14-14--|
|-----(x)--x--x---x--x--(x)----|---x-----x--x--(x)--x--x--x--|
|----(12)-12-12--12-13-(13)----|--10----10-10-(10)-10-12-12--|
|------------------------------|-----------------------------|
|
|  a   H.               +E   E    +W
|-13S=17---------------(17)-15-|-(15)------------------------|
|------------------------------|-----------------------------|
|-10S=14---------------(14)-12-|-(12)------------------------|
|------------------------------|-----------------------------|
|------------------------------|-----------------------------|
|------------------------------|-----------------------------|


   E  E  q  E E q      E   E  q  E  E E E
|------------------|----------------------|
|------------------|----------------------|
|--7--7--7--7-7-7--|---7---7--7--7--5-----|
|--7--7--7--7-7-7--|---7---7--7--7--5---8-|
|--5--5--5--5-5-5--|---5---5--5--5--3---8-|
|------------------|--------------------8-|
|
|  E  E  q  E E q      E   E  q  E  E E E
|------------------|----------------------|
|------------------|----------------------|
|-10-10-10--9-9-9--|--12--12-12--9-10---7-|
|--x--x--x--x-x-x--|---x---x--x--x--x---x-|
|--8--8--8--7-7-7--|--10--10-10--7--8---5-|
|------------------|----------------------|
|
|  W                  +W
|-13---------------|-(13)-----------------|
|------------------|----------------------|
|-10---------------|-(10)-----------------|
|------------------|----------------------|
|------------------|----------------------|
|------------------|----------------------|


     +E  E q  q    q         E   E  q  q  q
|------------------------|--------------------|
|------------------------|--------------------|
|------------------------|---5---5--5--5--5---|
|----(8)-8-8--8----8-----|---5---5--5--5--5---|
|----(8)-8-8--8----8-----|---3---3--3--3--3---|
|----(8)-8-8--8----8-----|--------------------|
|
|    +E  E Q  Q    Q         E   E  Q  Q  Q
|------------------------|--------------------|
|------------------------|--------------------|
|----(7)-7-7--7----7-----|--10--10-10--9--9---|
|----(x)-x-x--x----x-----|---x---x--x--x--x---|
|----(5)-5-5--5----5-----|---8---8--8--7--7---|
|------------------------|--------------------|
|
|  a  H.          +E   E    +W
|-13S17----------(17)-15-|-(15)---------------|
|------------------------|--------------------|
|-10S14----------(14)-12-|-(12)---------------|
|------------------------|--------------------|
|------------------------|--------------------|
|------------------------|--------------------|


   E  E  q   E  E  q      E   E  q   E  E E  E
|---------------------|------------------------|
|---------------------|------------------------|
|--7--7--7---7--7--7--|---7---7--7---7--5------|
|--7--7--7---7--7--7--|---7---7--7---7--5----8-|
|--5--5--5---5--5--5--|---5---5--5---5--3----8-|
|---------------------|----------------------8-|
|
|  E  E  q   E  E  q      E   E  q   E  E E  E
|---------------------|------------------------|
|---------------------|------------------------|
|-10-10-10--10-10-10--|--10--10-10--10-12---14-|
|--x--x--x---x--x--x--|---x---x--x---x--x----x-|
|--8--8--8---8--8--8--|---8---8--8---8-10---12-|
|---------------------|------------------------|
|
|  W                     +W
|-13------------------|-(13)-------------------|
|---------------------|------------------------|
|-10------------------|-(10)-------------------|
|---------------------|------------------------|
|---------------------|------------------------|
|---------------------|------------------------|


      +E   E  q   q      q         E  E  q      q      q
|------------------------------|-----------------------------|
|------------------------------|-----------------------------|
|------------------------------|---5--5--5------5------5-----|
|-----(8)--8--8---8------8-----|---5--5--5------5------5-----|
|-----(8)--8--8---8------8-----|---3--3--3------3------3-----|
|-----(8)--8--8---8------8-----|-----------------------------|
|
|     +E   E  Q   E  E  +Q         Q     E  E  +E   E  E  E
|------------------------------|-----------------------------|
|------------------------------|-----------------------------|
|----(14)-14-14--14-15-(15)----|--12----12-12-(12)-12-14-14--|
|-----(x)--x--x---x--x--(x)----|---x-----x--x--(x)--x--x--x--|
|----(12)-12-12--12-13-(13)----|--10----10-10-(10)-10-12-12--|
|------------------------------|-----------------------------|
|
|  a   H.               +E   E    +W
|-13S=17---------------(17)-15-|-(15)------------------------|
|------------------------------|-----------------------------|
|-10S=14---------------(14)-12-|-(12)------------------------|
|------------------------------|-----------------------------|
|------------------------------|-----------------------------|
|------------------------------|-----------------------------|


   E  E  q  E E q      E   E  q  E  E  +Q
|------------------|------------------------|
|------------------|------------------------|
|--7--7--7--7-7-7--|---7---7--7--7--5--(5)--|
|--7--7--7--7-7-7--|---7---7--7--7--5--(5)--|
|--5--5--5--5-5-5--|---5---5--5--5--3--(3)--|
|------------------|------------------------|
|
|  E  E  q  E E q      E   E  q  E  E  +Q
|------------------|------------------------|
|------------------|------------------------|
|-10-10-10--9-9-9--|--12--12-12--9-10-(10)--|
|--x--x--x--x-x-x--|---x---x--x--x--x--(x)--|
|--8--8--8--7-7-7--|--10--10-10--7--8--(8)--|
|------------------|------------------------|
|
|  W                  +W
|-13---------------|-(13)-------------------|
|------------------|------------------------|
|-10---------------|-(10)-------------------|
|------------------|------------------------|
|------------------|------------------------|
|------------------|------------------------|


   PM--------------------------------------------|
   e  e  e  e  e  e  e  e    e  e  e  e  e  e  e  e
|-------------------------|-------------------------|
|-------------13-13-------|-------------13-13-------|
|-------14-14-------14-14-|-------14-14-------14-14-|
|-12-12-------------------|-12-12-------------------|
|-------------------------|-------------------------|
|-------------------------|-------------------------|
|
|  PM--------------------------------------------|
|  e  e  e  e  e  e  e  e    e  e  e  e  e  e  e  e
|-------------12-12-------|-------------12-12-------|
|-------13-13-------13-13-|-------13-13-------13-13-|
|-------------------------|-------------------------|
|-12-12-------------------|-12-12-------------------|
|-------------------------|-------------------------|
|-------------------------|-------------------------|
|
|  W                         W
|-------------------------|-------------------------|
|-------------------------|-------------------------|
|-------------------------|-------------------------|
|-------------------------|-------------------------|
|-------------------------|-------------------------|
|-------------------------|-------------------------|


  E E  q   E  E  +E   E    +E   E  Q   E  E  E  E
|-----------------------|-------------------------|
|-----------------------|-------------------------|
|-----10--10-14-(14)-12-|-(12)-12-12--12-12-12-12-|
|-0-0--x---x--x--(x)--x-|--(x)--x--x---x--x--x--x-|
|-0-0--8---8-12-(12)-10-|-(10)-10-10--10-10-10-10-|
|-0-0-------------------|-------------------------|
|
| E E  q   E  E  +E   E    +E   E  Q   E  E  E  E
|-----------------------|-------------------------|
|-----------------------|-------------------------|
|-----10--10-14-(14)-12-|-(12)-12-12--12-12-12-12-|
|-0-0--x---x--x--(x)--x-|--(x)--x--x---x--x--x--x-|
|-0-0--8---8-12-(12)-10-|-(10)-10-10--10-10-10-10-|
|-0-0-------------------|-------------------------|


   PM-----------------------------------------------|
   e   e  e  e  e  e  e  e    e   e  e  e  e  e  e   e
|--------------------------|---------------------------|
|--------------13-13-------|--------------13-13--------|
|--------14-14-------14-14-|--------14-14-------14--14-|
|-12--12-------------------|-12--12--------------------|
|--------------------------|---------------------------|
|--------------------------|---------------------------|
|
|  H.                 Q      +H            E  E +Q
|--------------------------|---------------------------|
|--------------------------|---------------------------|
|-10------------------9----|-(9)----------10--5-(5)----|
|--x------------------x----|-(x)-----------x--x-(x)----|
|--8------------------7----|-(7)-----------8--3-(3)----|
|--------------------------|---------------------------|


  E E  q   E  E  +E   E    +E   E  Q   E  E  E  E
|-----------------------|-------------------------|
|-----------------------|-------------------------|
|-----10--10-14-(14)-12-|-(12)-12-12--12-12-12-12-|
|-0-0--x---x--x--(x)--x-|--(x)--x--x---x--x--x--x-|
|-0-0--8---8-12-(12)-10-|-(10)-10-10--10-10-10-10-|
|-0-0-------------------|-------------------------|
|
| E E  q   E  E  +E   E    +E   E  Q   E  E  E  E
|-----------------------|-------------------------|
|-----------------------|-------------------------|
|-----10--10-14-(14)-12-|-(12)-12-12--12-12-12-12-|
|-0-0--x---x--x--(x)--x-|--(x)--x--x---x--x--x--x-|
|-0-0--8---8-12-(12)-10-|-(10)-10-10--10-10-10-10-|
|-0-0-------------------|-------------------------|


   PM---------------------------------------------|
   e  e  e  e  e  e  e  e    e  e  e  e  e  e  e   e
|-------------------------|--------------------------|
|-------------13-13-------|-------------13-13--------|
|-------14-14-------14-14-|-------14-14-------14--14-|
|-12-12-------------------|-12-12--------------------|
|-------------------------|--------------------------|
|-------------------------|--------------------------|
|
|              PM------|
|  H           E  E  E  E    H           E  E +Q
|-------------------------|--------------------------|
|-------------------------|--------------------------|
|-------------------------|--------------------------|
|--3-----------3--3--3--3-|--5-----------5--8-(8)----|
|--3-----------3--3--3--3-|--5-----------5--8-(8)----|
|--3-----------3--3--3--3-|--5-----------5--8-(8)----|


  E E  q   E  E  +E   E    +E   E  Q   E  E  E  E
|-----------------------|-------------------------|
|-----------------------|-------------------------|
|-----10--10-14-(14)-12-|-(12)-12-12--12-12-12-12-|
|-0-0--x---x--x--(x)--x-|--(x)--x--x---x--x--x--x-|
|-0-0--8---8-12-(12)-10-|-(10)-10-10--10-10-10-10-|
|-0-0-------------------|-------------------------|
|
| E E  q   E  E  +E   E    +E   E  Q   E  E  E  E
|-----------------------|-------------------------|
|-----------------------|-------------------------|
|-----10--10-14-(14)-12-|-(12)-12-12--12-12-12-12-|
|-0-0--x---x--x--(x)--x-|--(x)--x--x---x--x--x--x-|
|-0-0--8---8-12-(12)-10-|-(10)-10-10--10-10-10-10-|
|-0-0-------------------|-------------------------|


   PM-----------------------------------------------|
   e   e  e  e  e  e  e  e    e   e  e  e  e  e  e   e
|--------------------------|---------------------------|
|--------------13-13-------|--------------13-13--------|
|--------14-14-------14-14-|--------14-14-------14--14-|
|-12--12-------------------|-12--12--------------------|
|--------------------------|---------------------------|
|--------------------------|---------------------------|
|
|  H.                 Q      +H            E  E +Q
|--------------------------|---------------------------|
|--------------------------|---------------------------|
|-10------------------9----|-(9)----------10--5-(5)----|
|--x------------------x----|-(x)-----------x--x-(x)----|
|--8------------------7----|-(7)-----------8--3-(3)----|
|--------------------------|---------------------------|


  E E  q   E  E  +E   E    +E   E  Q   E  E  E  E
|-----------------------|-------------------------|
|-----------------------|-------------------------|
|-----10--10-14-(14)-12-|-(12)-12-12--12-12-12-12-|
|-0-0--x---x--x--(x)--x-|--(x)--x--x---x--x--x--x-|
|-0-0--8---8-12-(12)-10-|-(10)-10-10--10-10-10-10-|
|-0-0-------------------|-------------------------|
|
| E E  q   E  E  +E   E    +E   E  Q   E  E  E  E
|-----------------------|-------------------------|
|-----------------------|-------------------------|
|-----10--10-14-(14)-12-|-(12)-12-12--12-12-12-12-|
|-0-0--x---x--x--(x)--x-|--(x)--x--x---x--x--x--x-|
|-0-0--8---8-12-(12)-10-|-(10)-10-10--10-10-10-10-|
|-0-0-------------------|-------------------------|


   PM--------------------------------------------|
   e  e  e  e  e  e  e  e    e  e  e  e  e  e  e  e
|-------------------------|-------------------------|
|-------------13-13-------|-------------13-13-------|
|-------14-14-------14-14-|-------14-14-------14-14-|
|-12-12-------------------|-12-12-------------------|
|-------------------------|-------------------------|
|-------------------------|-------------------------|
|
|  PM--------------------------------------------|
|  e  e  e  e  e  e  e  e    e  e  e  e  e  e  e  e
|-------------12-12-------|-------------12-12-------|
|-------13-13-------13-13-|-------13-13-------13-13-|
|-------------------------|-------------------------|
|-12-12-------------------|-12-12-------------------|
|-------------------------|-------------------------|
|-------------------------|-------------------------|


   Interlude Dood
    Gtrs I, II
     W          +W           +W           +W
||------------|------------|------------|--------|
||o-----------|------------|------------|--------|
||------------|------------|------------|--------|
||--^8--------|-(8)--------|-(8)--------|-(8)----|
||o-^8--------|-(8)--------|-(8)--------|-(8)----|
||--^8--------|-(8)--------|-(8)--------|-(8)----|


   W          +W           +W           +W
|-----------|------------|------------|---------||
|-----------|------------|------------|--------o||
|-----------|------------|------------|---------||
|-^0--------|-(0)--------|-(0)--------|-(0)-----||
|-^0--------|-(0)--------|-(0)--------|-(0)----o||
|-^0--------|-(0)--------|-(0)--------|-(0)-----||


   "Never Resting Time..."
    $
    Gtr I
    q  q  E E E E   E E q  E E E E   q  q  E E E E   E E q  H
||----------------|----------------|---------------|-------------|
||o---------------|----------------|---------------|-------------|
||--7--7--7-7-7-7-|---7-7--7-7-7-7-|-7--7--7-7-7-7-|---7-7--7----|
||--x--x--x-x-x-x-|---x-x--x-x-x-x-|-x--x--x-x-x-x-|---x-x--x----|
||o-5--5--5-5-5-5-|---5-5--5-5-5-5-|-5--5--5-5-5-5-|---5-5--5----|
||----------------|----------------|---------------|-------------|
|
|   Gtr II
|   q  q  E E E E   E E q  E E E E   q  q  E E E E   E E q  H
||----------------|----------------|---------------|-------------|
||o---------------|----------------|---------------|-------------|
||--9--9--9-9-9-9-|---9-9--9-9-9-9-|-9--9--9-9-9-9-|---9-9--9----|
||--x--x--x-x-x-x-|---x-x--x-x-x-x-|-x--x--x-x-x-x-|---x-x--x----|
||o-7--7--7-7-7-7-|---7-7--7-7-7-7-|-7--7--7-7-7-7-|---7-7--7----|
||----------------|----------------|---------------|-------------|


                                        To Cod
   q   q   E  E  E  E   E  E  q   E  E  E  E
|---------------------|----------------------|
|---------------------|----------------------|
|-12--12--12-12-12-12-|---12-12--12-12-12-12-|
|--x---x---x--x--x--x-|----x--x---x--x--x--x-|
|-10--10--10-10-10-10-|---10-10--10-10-10-10-|
|---------------------|----------------------|
|
|  q   q   E  E  E  E   E  E  q   E  E  E  E
|---------------------|----------------------|
|---------------------|----------------------|
|-14--14--14-14-14-14-|---14-14--14-14-14-14-|
|--x---x---x--x--x--x-|----x--x---x--x--x--x-|
|-12--12--12-12-12-12-|---12-12--12-12-12-12-|
|---------------------|----------------------|


 a
   q   q   E  E  E  E   E  E  q   H
|---------------------|-----------------||
|---------------------|----------------o||
|-12--12--12-12-12-12-|---12-12--12-----||
|--x---x---x--x--x--x-|----x--x---x-----||
|-10--10--10-10-10-10-|---10-10--10----o||
|---------------------|-----------------||
|
|  q   q   E  E  E  E   E  E  q   H
|---------------------|-----------------||
|---------------------|----------------o||
|-14--14--14-14-14-14-|---14-14--14-----||
|--x---x---x--x--x--x-|----x--x---x-----||
|-12--12--12-12-12-12-|---12-12--12----o||
|---------------------|-----------------||


  $$
   q     q     E  E  E  E    E  E  q     E  E  E  E
|-------------------------|-------------------------|
|-------------------------|-------------------------|
|--7-----7-----7--7--7--7-|-----7--7-----7--7--7--7-|
|--x-----x-----x--x--x--x-|-----x--x-----x--x--x--x-|
|--5-----5-----5--5--5--5-|-----5--5-----5--5--5--5-|
|-------------------------|-------------------------|
|
|  E  E  E  E  E  E  E  E    E  E  E  E  E  E  E  E
|----13-------15-13----13-|-------15-13----13-------|
|-15----17-13-------17----|-17-13-------17----17-13-|
|-------------------------|-------------------------|
|-------------------------|-------------------------|
|-------------------------|-------------------------|
|-------------------------|-------------------------|


   q     q     E  E  E  E    E  E  q     H
|-------------------------|-------------------------|
|-------------------------|-------------------------|
|--7-----7-----7--7--7--7-|-----7--7-----7----------|
|--x-----x-----x--x--x--x-|-----x--x-----x----------|
|--5-----5-----5--5--5--5-|-----5--5-----5----------|
|-------------------------|-------------------------|
|
|  E  E  E  E  E  E  E  E    E  E  E  E  E  E  E  E
|----13-------15-13----13-|-------15-13----13-------|
|-15----17-13-------17----|-17-13-------17----17-13-|
|-------------------------|-------------------------|
|-------------------------|-------------------------|
|-------------------------|-------------------------|
|-------------------------|-------------------------|


   q     q     E  E  E  E    E  E  q     E  E  E  E
|-------------------------|-------------------------|
|-------------------------|-------------------------|
|-12----12----12-12-12-12-|----12-12----12-12-12-12-|
|--x-----x-----x--x--x--x-|-----x--x-----x--x--x--x-|
|-10----10----10-10-10-10-|----10-10----10-10-10-10-|
|-------------------------|-------------------------|
|
|  E  E  E  E  E  E  E  E    E  E  E  E  E  E  E  E
|----13-------15-13----13-|-------15-13----13-------|
|-15----17-13-------17----|-17-13-------17----17-13-|
|-------------------------|-------------------------|
|-------------------------|-------------------------|
|-------------------------|-------------------------|
|-------------------------|-------------------------|


   q     q     E  E  E  E    E  E  q     H
|-------------------------|-------------------------|
|-------------------------|-------------------------|
|-12----12----12-12-12-12-|----12-12----12----------|
|--x-----x-----x--x--x--x-|-----x--x-----x----------|
|-10----10----10-10-10-10-|----10-10----10----------|
|-------------------------|-------------------------|
|
|  E  E  E  E  E  E  E  E    E  E  E  E  E  E  E  E
|----13-------15-13----13-|-------15-13----13-------|
|-15----17-13-------17----|-17-13-------17----17-13-|
|-------------------------|-------------------------|
|-------------------------|-------------------------|
|-------------------------|-------------------------|
|-------------------------|-------------------------|


  Gtr I
   q     q     E  E  E  E    E  E  q     E  E  E  E
|-------------------------|-------------------------|
|-------------------------|-------------------------|
|--7-----7-----7--7--7--7-|-----7--7-----7--7--7--7-|
|--x-----x-----x--x--x--x-|-----x--x-----x--x--x--x-|
|--5-----5-----5--5--5--5-|-----5--5-----5--5--5--5-|
|-------------------------|-------------------------|
|
| Gtrs II, III
|  E  E  E  E  E  E  E  E    E  E  E  E  E  E  E  E
|----13-------15-13----13-|-------15-13----13-------|
|-15----17-13-------17----|-17-13-------17----17-13-|
|-------------------------|-------------------------|
|-------------------------|-------------------------|
|-------------------------|-------------------------|
|-------------------------|-------------------------|


   q     q     E  E  E  E    E  E  q     H
|-------------------------|-------------------------|
|-------------------------|-------------------------|
|--7-----7-----7--7--7--7-|-----7--7-----7----------|
|--x-----x-----x--x--x--x-|-----x--x-----x----------|
|--5-----5-----5--5--5--5-|-----5--5-----5----------|
|-------------------------|-------------------------|
|
|  E  E  E  E  E  E  E  E    E  E  E  E  E  E  E  E
|----13-------15-13----13-|-------15-13----13-------|
|-15----17-13-------17----|-17-13-------17----17-13-|
|-------------------------|-------------------------|
|-------------------------|-------------------------|
|-------------------------|-------------------------|
|-------------------------|-------------------------|


   q     q     E  E  E  E    E  E  q     E  E  E  E
|-------------------------|-------------------------|
|-------------------------|-------------------------|
|-12----12----12-12-12-12-|----12-12----12-12-12-12-|
|--x-----x-----x--x--x--x-|-----x--x-----x--x--x--x-|
|-10----10----10-10-10-10-|----10-10----10-10-10-10-|
|-------------------------|-------------------------|
|
|  E  E  E  E  E  E  E  E    E  E  E  E  E  E  E  E
|----13-------15-13----13-|-------15-13----13-------|
|-15----17-13-------17----|-17-13-------17----17-13-|
|-------------------------|-------------------------|
|-------------------------|-------------------------|
|-------------------------|-------------------------|
|-------------------------|-------------------------|


   q     q     E  E  E  E    +W
|-------------------------|---------|
|-------------------------|---------|
|-12----12----12-12-12--7-|--(7)----|
|--x-----x-----x--x--x--7-|--(7)----|
|-10----10----10-10-10--5-|--(5)----|
|-------------------------|---------|
|
|  E  E  E  E  E  E  E  E    +W
|----13-------15-13-------|---------|
|-15----17-13-------17-13-|-(13)----|
|-------------------------|---------|
|-------------------------|---------|
|-------------------------|---------|
|-------------------------|---------|


    To Dbl. Coda
    >
   +W            +W
|-------------|---------|
|-------------|---------|
|--(7)--------|--(7)----|
|--(7)--------|--(7)----|
|--(5)--------|--(5)----|
|-------------|---------|
|
|   >
|  +W            +W
|-------------|---------|
|-(13)--------|-(13)----|
|-------------|---------|
|-------------|---------|
|-------------|---------|
|-------------|---------|


 Shreddage
  Gtr II
  PM|   PM  PM  PM    PM  PM
  E E E E E E E E   E E E E E E E E   +E  E Q  E E E  E    +E  E q   q  Q
|-----------------|-----------------|-------------------|------------------|
|-----------------|-----------------|-------------------|------------------|
|-----------------|-----------------|-------------------|------------------|
|-----------------|-----------------|-------------------|--------2---5-----|
|-----5---3---5---|-8---7---5h7p5---|-------8--7h8p7----|------0-----------|
|-0-0---0---0---0-|---0---0-------8-|-(8)-0----------10-|-(10)-------------|
|
| Gtr I
| W                 W                  W                    H        q  Q
|-----------------|-----------------|-------------------|------------------|
|-----------------|-----------------|-------------------|------------------|
|-----------------|-----------------|-------------------|------------5-----|
|-----------------|-----------------|-------------------|------------5-----|
|-----------------|-----------------|-------------------|------------3-----|
|-----------------|-----------------|-------------------|------------------|
|
| Gtr IV
| W                 W                  W                    H        Q  Q
|-----------------|-----------------|-------------------|-----------13-----|
|-----------------|-----------------|-------------------|------------------|
|-----------------|-----------------|-------------------|-----------10-----|
|-----------------|-----------------|-------------------|------------------|
|-----------------|-----------------|-------------------|------------------|
|-----------------|-----------------|-------------------|------------------|


  Gtr II
   PM|   PM  PM  PM       PM  PM
   E E E E E E E E     E  E E E E E E E
|------------------|--------------------|
|------------------|--------------------|
|------------------|--------------------|
|------------------|--------------------|
|------5---3---5---|---8----7---5h7p5---|
|--0-0---0---0---0-|------0---0-------8-|
|
| Gtr I
|  E E q   E E q       E  E q   E E E E
|------------------|--------------------|
|------------------|--------------------|
|--7-7-7---7-7-7---|---7--7-7---7-5-----|
|--7-7-7---7-7-7---|---7--7-7---7-5---8-|
|--5-5-5---5-5-5---|---5--5-5---5-3---8-|
|------------------|------------------8-|
|
|  W                  +W
|-13---------------|-(13)---------------|
|------------------|--------------------|
|-10---------------|-(10)---------------|
|------------------|--------------------|
|------------------|--------------------|
|------------------|--------------------|


     +Q    q  q    q         q    q  q  q
|------------------------|------------------|
|------------------------|------------------|
|------------------------|---5----5--5--5---|
|----------8--8----8-----|---5----5--5--5---|
|----------8--8----8-----|---3----3--3--3---|
|----(8)---8--8----8-----|------------------|
|
|    +E  E q  q    q         E  E q  q  q
|------------------------|------------------|
|------------------------|------------------|
|------------------------|---5--5-5--5--5---|
|----(8)-8-8--8----8-----|---5--5-5--5--5---|
|----(8)-8-8--8----8-----|---3--3-3--3--3---|
|----(8)-8-8--8----8-----|------------------|
|
|  a  H.          +E   E    +W
|-13S17----------(17)-15-|-(15)-------------|
|------------------------|------------------|
|-10S14----------(14)-12-|-(12)-------------|
|------------------------|------------------|
|------------------------|------------------|
|------------------------|------------------|


   PM|   PM  PM  PM       PM  PM
   E E E E E E E E     E  E E E E E E E
|------------------|--------------------|
|------------------|--------------------|
|------------------|--------------------|
|------------------|--------------------|
|------5---3---5---|---8----7---5h7p5---|
|--0-0---0---0---0-|------0---0-------8-|
|
|  E E q   E E q       E  E q   E E E E
|------------------|--------------------|
|------------------|--------------------|
|--7-7-7---7-7-7---|---7--7-7---7-5-----|
|--7-7-7---7-7-7---|---7--7-7---7-5---8-|
|--5-5-5---5-5-5---|---5--5-5---5-3---8-|
|------------------|------------------8-|
|
|  W                  +W
|-13---------------|-(13)---------------|
|------------------|--------------------|
|-10---------------|-(10)---------------|
|------------------|--------------------|
|------------------|--------------------|
|------------------|--------------------|


                         PM--|  ~~~~~
                         |-3-|
     +E  E Q  E E +Q     Q Q Q  H
|----------------------|----------------|
|----------------------|-------16b22----|
|----------------------|----------------|
|----------------------|-0-0-0----------|
|----------8--7h8-(8)--|-0-0-0----------|
|----(8)-0-------------|-0-0-0----------|
|
|                        PM--|
|                        |-3-|
|    +E  E q  q    q     Q Q Q  H
|----------------------|----------------|
|----------------------|----------------|
|----------------------|----------------|
|----(8)-8-8--8----8---|-0-0-0----------|
|----(8)-8-8--8----8---|-0-0-0----------|
|----(8)-8-8--8----8---|-0-0-0----------|
|
|  a  W                  W
|-13S17----------------|----------------|
|----------------------|----------------|
|-10S14----------------|----------------|
|----------------------|----------------|
|----------------------|----------------|
|----------------------|----------------|


   "My Love Was My..."
    Gtrs I, III
     E  E  H           E  E    E  E  Q     E  E  Q
||--------------------------|-------------------------|
||o-------------------------|-------------------------|
||--------------------------|-------------------------|
||---0--0--------------0--0-|--0--0--------0--0-------|
||o--0--0--------------0--0-|--0--0--------0--0-------|
||---0--0--------------0--0-|--0--0--------0--0-------|
|
|   Gtr II
|    E  E  E  E  E  E  E  E    E  E  E  E  E  E  E  E
||--------------------------|-------------------------|
||o-------------------------|-------------------------|
||--------------------------|-------------------------|
||--12p=0h12p=0h10p=0h12p=0h|=15p=0h14p=0h12h14p12p=0h|
||o-------------------------|-------------------------|
||--------------------------|-------------------------|
|
|    E  E  E  E  E  E  E  E    E  E  E  E  E  E  E  E
||-----13-------15-13----13-|-------15-13----13-------|
||o-15----17-13-------17----|-17-13-------17----17-13-|
||--------------------------|-------------------------|
||--------------------------|-------------------------|
||o-------------------------|-------------------------|
||--------------------------|-------------------------|


   E  E  H           E  E    E  E  Q     H
|-------------------------|--------------------------|
|-------------------------|--------------------------|
|-------------------------|--------------------------|
|--0--0--------------0--0-|--0--0--------0-----------|
|--0--0--------------0--0-|--0--0--------0-----------|
|--0--0--------------0--0-|--0--0--------0-----------|
|
|  E  E  E  E  E  E  E  E    E  E  E  E  E  E  E  E
|-------------------------|--------------------------|
|-------------------------|--------------------------|
|-------------------------|--------------------------|
|--8p=0h12p=0h15p=0h14h15p|=10p=0h15p=0h17p=0h15h17--|
|-------------------------|--------------------------|
|-------------------------|--------------------------|
|
|  E  E  E  E  E  E  E  E    E  E  E  E  E  E  E  E
|----13-------15-13----13-|-------15-13----13--------|
|-15----17-13-------17----|-17-13-------17----17-13--|
|-------------------------|--------------------------|
|-------------------------|--------------------------|
|-------------------------|--------------------------|
|-------------------------|--------------------------|


   E  E  H           E  E    E  E  Q     E  E  Q
|-------------------------|-------------------------|
|-------------------------|-------------------------|
|-------------------------|-------------------------|
|--0--0--------------0--0-|--0--0--------0--0-------|
|--0--0--------------0--0-|--0--0--------0--0-------|
|--0--0--------------0--0-|--0--0--------0--0-------|
|
|  E  E  E  E  E  E  E  E    E  E  E  E  E  E  E  E
|-------------------------|-------------------------|
|-------------------------|-------------------------|
|-------------------------|-------------------------|
|-12p=0h12p=0h10p=0h12p=0h|=15p=0h14p=0h12h14p12p=0h|
|-------------------------|-------------------------|
|-------------------------|-------------------------|
|
|  E  E  E  E  E  E  E  E    E  E  E  E  E  E  E  E
|----13-------15-13----13-|-------15-13----13-------|
|-15----17-13-------17----|-17-13-------17----17-13-|
|-------------------------|-------------------------|
|-------------------------|-------------------------|
|-------------------------|-------------------------|
|-------------------------|-------------------------|


                            1.                          2.
                                                        |-3-|
   E  E  H           E  E    E  E  Q     H              Q Q Q H
|-------------------------|--------------------------||------------|
|-------------------------|-------------------------o||------------|
|-------------------------|--------------------------||------------|
|--0--0--------------x--x-|--x--x--------0-----------||-0-0-0-0----|
|--0--0--------------x--x-|--x--x--------0----------o||-0-0-0-0----|
|--0--0--------------x--x-|--x--x--------0-----------||-0-0-0-0----|
|
|                                                       |-3-|
|  E  E  E  E  E  E  E  E    E  E  E  E  E  E  E  E     Q Q Q H
|-------------------------|--------------------------||------------|
|-------------------------|-------------------------o||------------|
|-------------------------|--------------------------||------------|
|--8p=0h12p=0h15p=0h14h15p|=10p=0h15p=0h17p=0h15h17--||-0-0-0-0----|
|-------------------------|-------------------------o||-0-0-0-0----|
|-------------------------|--------------------------||-0-0-0-0----|
|
|  E  E  E  E  E  E  E  E    E  E  E  E  E  E  E  E     W
|----13-------15-13----13-|-------15-13----13--------||------------|
|-15----17-13-------17----|-17-13-------17----17-13-o||------------|
|-------------------------|--------------------------||------------|
|-------------------------|--------------------------||------------|
|-------------------------|-------------------------o||------------|
|-------------------------|--------------------------||------------|


 Playing Roulette With..."
  Gtr I
  E E  q   E  E  +E   E    +E   E  Q   E  E  E  E
|-----------------------|-------------------------|
|-----------------------|-------------------------|
|-----10--10-14-(14)-12-|-(12)-12-12--12-12-12-12-|
|-0-0--x---x--x--(x)--x-|--(x)--x--x---x--x--x--x-|
|-0-0--8---8-12-(12)-10-|-(10)-10-10--10-10-10-10-|
|-0-0-------------------|-------------------------|
|
| Gtr II
| E E  q   E  E  +E   E    +E   E  Q   E  E  E  E
|-----------------------|-------------------------|
|-----------------------|-------------------------|
|-----10--10-14-(14)-12-|-(12)-12-12--12-12-12-12-|
|-0-0--x---x--x--(x)--x-|--(x)--x--x---x--x--x--x-|
|-0-0--8---8-12-(12)-10-|-(10)-10-10--10-10-10-10-|
|-0-0-------------------|-------------------------|


   PM-----------------------------------------------|
   e   e  e  e  e  e  e  e    e   e  e  e  e  e  e   e
|--------------------------|---------------------------|
|--------------13-13-------|--------------13-13--------|
|--------14-14-------14-14-|--------14-14-------14--14-|
|-12--12-------------------|-12--12--------------------|
|--------------------------|---------------------------|
|--------------------------|---------------------------|
|
|  H.                 Q      +H            E  E +Q
|--------------------------|---------------------------|
|--------------------------|---------------------------|
|-10------------------9----|-(9)----------10--5-(5)----|
|--x------------------x----|-(x)-----------x--x-(x)----|
|--8------------------7----|-(7)-----------8--3-(3)----|
|--------------------------|---------------------------|


  E E  q   E  E  +E   E    +E   E  Q   E  E  E  E
|-----------------------|-------------------------|
|-----------------------|-------------------------|
|-----10--10-14-(14)-12-|-(12)-12-12--12-12-12-12-|
|-0-0--x---x--x--(x)--x-|--(x)--x--x---x--x--x--x-|
|-0-0--8---8-12-(12)-10-|-(10)-10-10--10-10-10-10-|
|-0-0-------------------|-------------------------|
|
| E E  q   E  E  +E   E    +E   E  Q   E  E  E  E
|-----------------------|-------------------------|
|-----------------------|-------------------------|
|-----10--10-14-(14)-12-|-(12)-12-12--12-12-12-12-|
|-0-0--x---x--x--(x)--x-|--(x)--x--x---x--x--x--x-|
|-0-0--8---8-12-(12)-10-|-(10)-10-10--10-10-10-10-|
|-0-0-------------------|-------------------------|


            |-3-|
  E E H   E S S S   E E Q  E E  Q
|-----------------|------------------|
|-----------------|------------------|
|-----------------|------------------|
|-0-0-------0-0-0-|-0-0----0-0-------|
|-0-0-------0-0-0-|-0-0----0-0-------|
|-0-0-------0-0-0-|-0-0----0-0-------|
|
|           |-3-|
| E E H   E S S S   E E Q  E E  Q
|-----------------|------------<5>---|
|-----------------|------------<5>---|
|-----------------|------------<5>---|
|-0-0-------0-0-0-|-0-0----0-0-------|
|-0-0-------0-0-0-|-0-0----0-0-------|
|-0-0-------0-0-0-|-0-0----0-0-------|


  E E  q   E  E  +E   E    +E   E  Q   E  E  E  E
|-----------------------|-------------------------|
|-----------------------|-------------------------|
|-----10--10-14-(14)-12-|-(12)-12-12--12-12-12-12-|
|-0-0--x---x--x--(x)--x-|--(x)--x--x---x--x--x--x-|
|-0-0--8---8-12-(12)-10-|-(10)-10-10--10-10-10-10-|
|-0-0-------------------|-------------------------|
|
| E E  q   E  E  +E   E    +E   E  Q   E  E  E  E
|-----------------------|-------------------------|
|-----------------------|-------------------------|
|-----10--10-14-(14)-12-|-(12)-12-12--12-12-12-12-|
|-0-0--x---x--x--(x)--x-|--(x)--x--x---x--x--x--x-|
|-0-0--8---8-12-(12)-10-|-(10)-10-10--10-10-10-10-|
|-0-0-------------------|-------------------------|


   PM---------------------------------------------|
   e  e  e  e  e  e  e  e    e  e  e  e  e  e  e   e
|-------------------------|--------------------------|
|-------------13-13-------|-------------13-13--------|
|-------14-14-------14-14-|-------14-14-------14--14-|
|-12-12-------------------|-12-12--------------------|
|-------------------------|--------------------------|
|-------------------------|--------------------------|
|
|  E  E  E  E  E  E  E  E    E  E  E  E  E  E +Q
|-------------------------|--------------------------|
|-------------------------|--------------------------|
|-10-10-10-10-10-10--9--9-|--9--9--9--9-10--5-(5)----|
|--x--x--x--x--x--x--x--x-|--x--x--x--x--x--x-(x)----|
|--8--8--8--8--8--8--7--7-|--7--7--7--7--8--3-(3)----|
|-------------------------|--------------------------|


  E E  q   E  E  +E   E    +E   E  Q   E  E  E  E
|-----------------------|-------------------------|
|-----------------------|-------------------------|
|-----10--10-14-(14)-12-|-(12)-12-12--12-12-12-12-|
|-0-0--x---x--x--(x)--x-|--(x)--x--x---x--x--x--x-|
|-0-0--8---8-12-(12)-10-|-(10)-10-10--10-10-10-10-|
|-0-0-------------------|-------------------------|
|
| E E  q   E  E  +E   E    +E   E  Q   E  E  E  E
|-----------------------|-------------------------|
|-----------------------|-------------------------|
|-----10--10-14-(14)-12-|-(12)-12-12--12-12-12-12-|
|-0-0--x---x--x--(x)--x-|--(x)--x--x---x--x--x--x-|
|-0-0--8---8-12-(12)-10-|-(10)-10-10--10-10-10-10-|
|-0-0-------------------|-------------------------|


             |-3-|
  E E H    E S S S   E E Q  E E Q
|------------------|---------------|
|------------------|---------------|
|------------------|---------------|
|-0-0--------0-0-0-|-0-0----0-0----|
|-0-0--------0-0-0-|-0-0----0-0----|
|-0-0--------0-0-0-|-0-0----0-0----|
|
|            |-3-|
| E E H    E S S S   E E Q  E E Q
|------------------|---------------|
|------------------|---------------|
|------------------|---------------|
|-0-0--------0-0-0-|-0-0----0-0----|
|-0-0--------0-0-0-|-0-0----0-0----|
|-0-0--------0-0-0-|-0-0----0-0----|


 "Devotion Into..."
  W          +W           +W           +Q   Q  Q  Q
|----------|------------|------------|---------------|
|----------|------------|------------|------4-----4--|
|----------|------------|------------|------7-----7--|
|-0--------|-(0)--------|-(0)--------|-(0)-----------|
|-0--------|-(0)--------|-(0)--------|-(0)-----------|
|-0--------|-(0)--------|-(0)--------|-(0)-----------|
|
| W          +W           +W           +Q   Q  Q  Q
|----------|------------|------------|---------------|
|----------|------------|------------|---------5-----|
|----------|------------|------------|---------8-----|
|-0--------|-(0)--------|-(0)--------|-(0)-----------|
|-0--------|-(0)--------|-(0)--------|-(0)-----------|
|-0--------|-(0)--------|-(0)--------|-(0)-----------|


    q  q  Q  E E   q  H    E E   q  H    Q    +E  E Q  Q  Q
||---------------|-------------|------------|------------------||
||o--------------|-------------|------------|-------4-----4---o||
||---------------|-------------|------------|-------7-----7----||
||--0--0-----0-0-|-0-------0-0-|-0-------0--|-(0)-0------------||
||o-0--0-----0-0-|-0-------0-0-|-0-------0--|-(0)-0-----------o||
||--0--0-----0-0-|-0-------0-0-|-0-------0--|-(0)-0------------||
|
|   q  q  Q  E E   q  H    E E   q  H    Q    +E  E Q  Q  Q
||---------------|-------------|------------|------------------||
||o--------------|-------------|------------|----------5------o||
||---------------|-------------|------------|----------8-------||
||--0--0-----0-0-|-0-------0-0-|-0-------0--|-(0)-0------------||
||o-0--0-----0-0-|-0-------0-0-|-0-------0--|-(0)-0-----------o||
||--0--0-----0-0-|-0-------0-0-|-0-------0--|-(0)-0------------||


  Q  H     E E   Q  +H     E E   q  +H     Q
|--------------|---------------|--------------|
|--------------|---------------|--------------|
|--------------|---------------|--------------|
|-0--0-----0-0-|-0--(0)----0-0-|-0--(0)----0--|
|-0--0-----0-0-|-0--(0)----0-0-|-0--(0)----0--|
|-0--0-----0-0-|-0--(0)----0-0-|-0--(0)----0--|
|
| q  q  Q  E E   q   H     E E   q   H     Q
|--------------|---------------|--------------|
|--------------|---------------|--------------|
|--------------|---------------|--------------|
|-0--0-----0-0-|-0---------0-0-|-0---------0--|
|-0--0-----0-0-|-0---------0-0-|-0---------0--|
|-0--0-----0-0-|-0---------0-0-|-0---------0--|


 "Scream Loud As You..."
  Q   Q  E E +E  E   E E +E  E Q   Q    Q   Q  E E +E  E   E E +E  E Q   Q
|------------------|------------------|------------------|--------------------|
|-5---5----5-(5)-5-|---5-(5)---5------|-5---5----5-(5)-5-|---5-(5)---5--------|
|-8---8----8-(8)-8-|---8-(8)---8------|-8---8----8-(8)-8-|---8-(8)---8--------|
|------------------|------------------|------------------|--------------------|
|------------------|------------------|------------------|--------------------|
|------------------|------------------|------------------|--------------------|
|
| E E q  E E  q      E E  q    E E q    E E q  E E  q      E E  q    E E q
|------------------|------------------|------------------|--------------------|
|------------------|------------------|------------------|--------------------|
|------------------|------------------|------------------|--------------------|
|------------------|------------------|------------------|--------------------|
|-0-0-0--0-0--0----|-0-0--0----0-0-0--|-0-0-0--0-0--0----|-0-0--0----0-0-0----|
|-0-0-0--0-0--0----|-0-0--0----0-0-0--|-0-0-0--0-0--0----|-0-0--0----0-0-0----|


  Q   Q  E E +E  E   E E +E  E Q   Q    Q   Q  E E +E  E   E E +E  E Q   Q
|------------------|------------------|------------------|------------------|
|-5---5----5-(5)-5-|---5-(5)---5------|-5---5----5-(5)-5-|---5-(5)---5------|
|-8---8----8-(8)-8-|---8-(8)---8------|-8---8----8-(8)-8-|---8-(8)---8------|
|------------------|------------------|------------------|------------------|
|------------------|------------------|------------------|------------------|
|------------------|------------------|------------------|------------------|
|
| E E q  E E  q      E E  q    E E q    E E Q  E E  Q      E E  Q    E E Q
|------------------|------------------|------------------|------------------|
|------------------|------------------|------------------|------------------|
|------------------|------------------|------------------|------------------|
|------------------|------------------|------------------|------------------|
|-0-0-0--0-0--0----|-0-0--0----0-0-0--|-0-0-0--0-0--0----|-0-0--0----0-0-0--|
|-0-0-0--0-0--0----|-0-0--0----0-0-0--|-6p0h6--6p0h=6----|-6p0h=6----6p0h6--|


 "There's No Way That..."
  PM|
  E E  Q   Q  E  E    +E   E E E  q   Q
|------------------|---------------------|
|------5---5--x--5-|--(5)--5---x--5---5--|
|------8---8--x--8-|--(8)--8---x--8---8--|
|-0-0--------------|---------------------|
|-0-0--------------|---------------------|
|-0-0--------------|---------------------|
|
| PM|
| E E  Q   Q  E  E    +E   E E E  q   Q
|------------------|---------------------|
|------------------|---------------------|
|-----10--10--x-10-|-(10)-10---x-10--10--|
|-0-0--x---x--x--x-|--(x)--x---x--x---x--|
|-0-0--8---8--x--8-|--(8)--8---x--8---8--|
|-0-0--------------|---------------------|


  PM|
  E E  Q   Q  E  E    +E   E E E  E  E  Q
|------------------|-----------------------|
|------5---5--x--5-|--(5)--5---x--5--5--5--|
|------8---8--x--8-|--(8)--8---x--8--8--8--|
|-0-0--------------|-----------------------|
|-0-0--------------|-----------------------|
|-0-0--------------|-----------------------|
|
| E E  Q   Q  E  E    +E   E E E  E  E  Q
|------------------|-----------------------|
|------------------|-----------------------|
|-----10--10--x-10-|-(10)-10---x-10-10-10--|
|-0-0--x---x--x--x-|--(x)--x---x--x--x--x--|
|-0-0--8---8--x--8-|--(8)--8---x--8--8--8--|
|-0-0--------------|-----------------------|


  PM|                               PM|
  E E Q  Q  E E   +E  E E E q  Q    E E Q  Q  E E   +E  E E E E E Q
|---------------|-----------------|---------------|------------------|
|-----5--5--x-5-|-(5)-5---x-5--5--|-----5--5--x-5-|-(5)-5---x-5-5-5--|
|-----8--8--x-8-|-(8)-8---x-8--8--|-----8--8--x-8-|-(8)-8---x-8-8-8--|
|-0-0-----------|-----------------|-0-0-----------|------------------|
|-0-0-----------|-----------------|-0-0-----------|------------------|
|-0-0-----------|-----------------|-0-0-----------|------------------|
|
| E E Q  Q  E E   +E  E E E q  Q    E E Q  Q  E E   +E  E E E E E Q
|---------------|-----------------|---------------|------------------|
|---------------|-----------------|---------------|------------------|
|-----9--9--x-9-|-(9)-9---x-9--9--|-----9--9--x-9-|-(9)-9---x-9-9-9--|
|-0-0-x--x--x-x-|-(x)-x---x-x--x--|-0-0-x--x--x-x-|-(x)-x---x-x-x-x--|
|-0-0-7--7--x-7-|-(7)-7---x-7--7--|-0-0-7--7--x-7-|-(7)-7---x-7-7-7--|
|-0-0-----------|-----------------|-0-0-----------|------------------|


  PM|
  E E  Q   Q  E  E    +E   E E E  q   Q
|------------------|---------------------|
|------5---5--x--5-|--(5)--5---x--5---5--|
|------8---8--x--8-|--(8)--8---x--8---8--|
|-0-0--------------|---------------------|
|-0-0--------------|---------------------|
|-0-0--------------|---------------------|
|
| PM|
| E E  Q   Q  E  E    +E   E E E  q   q
|------------------|---------------------|
|------------------|---------------------|
|-----10--10--x-10-|-(10)-10---x-10--10--|
|-0-0--x---x--x--x-|--(x)--x---x--x---x--|
|-0-0--8---8--x--8-|--(8)--8---x--8---8--|
|-0-0--------------|---------------------|


  PM|
  E E  Q   Q  E  E    +E   E E E  E  E  Q
|------------------|-----------------------|
|------5---5--x--5-|--(5)--5---x--5--5--5--|
|------8---8--x--8-|--(8)--8---x--8--8--8--|
|-0-0--------------|-----------------------|
|-0-0--------------|-----------------------|
|-0-0--------------|-----------------------|
|
| E E  Q   Q  E  E    +E   E E E  E  E  Q
|------------------|-----------------------|
|------------------|-----------------------|
|-----10--10--x-10-|-(10)-10---x-10-10-10--|
|-0-0--x---x--x--x-|--(x)--x---x--x--x--x--|
|-0-0--8---8--x--8-|--(8)--8---x--8--8--8--|
|-0-0--------------|-----------------------|


                                                        D.S. al Coda
  PM|                               PM|
  E E Q  Q  E E   +E  E E E q  Q    E E Q  Q  E E   +E  E E E E  E    Q
|---------------|-----------------|---------------|------------------------|
|-----5--5--x-5-|-(5)-5---x-5--5--|-----5--5--x-5-|-(5)-5---x-5--5---------|
|-----8--8--x-8-|-(8)-8---x-8--8--|-----8--8--x-8-|-(8)-8---x-8-------8----|
|-0-0-----------|-----------------|-0-0-----------|------------------------|
|-0-0-----------|-----------------|-0-0-----------|------------------------|
|-0-0-----------|-----------------|-0-0-----------|------------------------|
|
| E E Q  Q  E E   +E  E E E q  q    E E Q  Q  E E   +E  E E E E  E   +Q
|---------------|-----------------|---------------|------------------------|
|---------------|-----------------|---------------|------------------------|
|-----9--9--x-9-|-(9)-9---x-9--9--|-----9--9--x-9-|-(9)-9---x-9-<9>-(<9>)--|
|-0-0-x--x--x-x-|-(x)-x---x-x--x--|-0-0-x--x--x-x-|-(x)-x---x-x------------|
|-0-0-7--7--x-7-|-(7)-7---x-7--7--|-0-0-7--7--x-7-|-(7)-7---x-7------------|
|-0-0-----------|-----------------|-0-0-----------|------------------------|


  &                          D.S.S. al Dbl. Coda
  Gtr I
   q     q    E  E  E  E    E  E  q     H
|------------------------|-------------------------|
|------------------------|-------------------------|
|-12----12---12-12-12-12-|----12-12----12----------|
|--x-----x----x--x--x--x-|-----x--x-----x----------|
|-10----10---10-10-10-10-|----10-10----10----------|
|------------------------|-------------------------|
|
| Gtrs II, III
|  E  E  E E  E  E  E  E    E  E  E  E  E  E  E  E
|------------------------|-------------------------|
|------------------------|-------------------13-13-|
|------------------------|-----7--9-10-14-15-------|
|-------------------7--8-|-10----------------------|
|----------8-10-12-------|-------------------------|
|-12-14-15---------------|-------------------------|


    &&
    Gtrs I, III
    E E Q  E E Q    Q  E E E E E E   E E Q  E E Q    W
||----------------|----------------|---------------|---------------||
||o---------------|----------------|---------------|--------------o||
||----------------|----------------|---------------|---------------||
||--0-0----0-0----|----0-0-0-0-0-0-|-0-0----0-0----|---------------||
||o-0-0----0-0----|----0-0-0-0-0-0-|-0-0----0-0----|--------------o||
||--0-0----0-0----|----0-0-0-0-0-0-|-0-0----0-0----|---------------||
|
|   Gtr II
|   Q   Q  Q   Q    Q  Q   Q   Q     Q   Q  Q   Q    Q  Q  Q  Q
||----------------|----------------|---------------|---------------||
||o-4---3--4---3--|-6--4---3---4---|-4---3--4---3--|-6--4--3--4---o||
||--7---6--7---6--|-9--7---6---7---|-7---6--7---6--|-9--7--6--7----||
||----------------|----------------|---------------|---------------||
||o---------------|----------------|---------------|--------------o||
||----------------|----------------|---------------|---------------||


 "I'll Stop Stabbing..."
  Gtr I
                                                        <
  E E Q   E E Q     Q   E E E E E E    E E Q  E E Q     W
|-----------------|------------------|---------------|--------|
|-----------------|------------------|---------------|-<9>----|
|-----------------|------------------|---------------|--------|
|-0-0-----0-0-----|-----0-0-0-0-0-0--|-0-0----0-0----|--------|
|-0-0-----0-0-----|-----0-0-0-0-0-0--|-0-0----0-0----|--------|
|-0-0-----0-0-----|-----0-0-0-0-0-0--|-0-0----0-0----|--------|
|
| Gtr II
| E E E E E E E E   E E E E E E E E    W                W
|-----------------|------------------|---------------|--------|
|-----------------|------------------|---------------|--------|
|-----------------|------------------|---------------|--------|
|-----------------|------------------|---------------|--------|
|-5p0h5p0h5p0h7p0h|=8p0h7p0h5h7p0h5--|---------------|--------|
|-----------------|------------------|---------------|--------|


  E E Q   E E Q     Q   E E E E E E   E E Q  E E Q    W
|-----------------|-----------------|---------------|------|
|-----------------|-----------------|---------------|------|
|-----------------|-----------------|---------------|------|
|-0-0-----0-0-----|-----0-0-0-0-0-0-|-0-0----0-0----|------|
|-0-0-----0-0-----|-----0-0-0-0-0-0-|-0-0----0-0----|------|
|-0-0-----0-0-----|-----0-0-0-0-0-0-|-0-0----0-0----|------|
|
| E E E E E E E E   E E E E E E E E   W               W
|-----------------|-----------------|---------------|------|
|-----------------|-----------------|---------------|------|
|-----------------|-----------------|---------------|------|
|-----------------|-----------------|---------------|------|
|-5p0h5p0h5p0h7p0h|=8p0h7p0h5h7p0h5-|---------------|------|
|-----------------|-----------------|---------------|------|


  E E Q   E E Q     Q   E E E E E E   E E Q   E E Q     W
|-----------------|-----------------|-----------------|-------------------|
|-----------------|-----------------|-----------------|-------------------|
|-----------------|-----------------|-----------------|-------------------|
|-0-0-----0-0-----|-----0-0-0-0-0-0-|-0-0-----0-0-----|-------------------|
|-0-0-----0-0-----|-----0-0-0-0-0-0-|-0-0-----0-0-----|-------------------|
|-0-0-----0-0-----|-----0-0-0-0-0-0-|-0-0-----0-0-----|-------------------|
|
| E E E E E E E E   E E E E E E E E   E E E E E E E E   E E E E  E E E  E
|-----------------|-----------------|-----------------|-------------------|
|-----------------|-----------------|-----------------|-------------------|
|-----------------|-----------------|-----------------|-------------------|
|-----------------|-----------------|-----------------|-------------------|
|-5p0h5p0h5p0h7p0h|=8p0h7p0h5h7p0h5p|=1p0h5p0h8p0h7h8p|=3p0h7p0h10p0h8h10-|
|-----------------|-----------------|-----------------|-------------------|


  E E Q   E E Q     Q   E E E E E E   E E Q  E E Q    W
|-----------------|-----------------|---------------|------*|
|-----------------|-----------------|---------------|------*|
|-----------------|-----------------|---------------|------*|
|-0-0-----0-0-----|-----0-0-0-0-0-0-|-0-0----0-0----|------*|
|-0-0-----0-0-----|-----0-0-0-0-0-0-|-0-0----0-0----|------*|
|-0-0-----0-0-----|-----0-0-0-0-0-0-|-0-0----0-0----|------*|
|
| E E E E E E E E   E E E E E E E E   E E Q  E E Q    W
|-----------------|-----------------|---------------|------*|
|-----------------|-----------------|---------------|------*|
|-----------------|-----------------|---------------|------*|
|-----------------|-----------------|-0-0----0-0----|------*|
|-5p0h5p0h5p0h7p0h|=8p0h7p0h5h7p0h5-|-0-0----0-0----|------*|
|-----------------|-----------------|-0-0----0-0----|------*|


Duration Legend
---------------
W - whole; H - half; Q - quarter; E - 8th; S - 16th; T - 32nd; X - 64th; a - acciaccatura
+ - note tied to previous; . - note dotted; .. - note double dotted
Uncapitalized letters represent notes that are staccato (1/2 duration)
Irregular groupings are notated above the duration line
Duration letters will always appear directly above the note/fret number it represents the
duration for.  Duration letters with no fret number below them represent rests.  Multi-
bar rests are notated in the form Wxn, where n is the number of bars to rest for.  Low
melody durations appear below the staff

Tablature Legend
----------------
 h   - hammer-on
 p   - pull-off
 b   - bend
 pb  - pre-bend
 r   - bend release (if no number after the r, then release immediately)
 /\  - slide into or out of (from/to "nowhere")
 s   - legato slide
 S   - shift slide
  - natural harmonic
[n]  - artificial harmonic
n(n) - tapped harmonic
 ~   - vibrato
 tr  - trill
 T   - tap
 TP  - trem. picking
 PM  - palm muting
\n/  - tremolo bar dip; n = amount to dip
 \n  - tremolo bar down
 n/  - tremolo bar up
/n\  - tremolo bar inverted dip
 =   - hold bend; also acts as connecting device for hammers/pulls
 <>  - volume swell (louder/softer)
 x   - on rhythm slash represents muted slash
 o   - on rhythm slash represents single note slash

Misc Legend
-----------
 |  - bar
||  - double bar
||o - repeat start
o|| - repeat end
*|  - double bar (ending)
 :  - bar (freetime)
 $  - Segno
 &  - Coda
Tempo markers -  = BPM(8/16=s8/s16), where s8 = swing 8ths, s16 = swing 16ths


***************************************************************************************
* Generated using Power Tab Editor by Brad Larsen - http://powertab.guitarnetwork.org *
***************************************************************************************
Tap to rate this tab
 
# A B C D E F G H I J K L M N O P Q R S T U V W X Y Z