Song name
# A B C D E F G H I J K L M N O P Q R S T U V W X Y Z

Chiodos - We Swam From Albatross The Day We Lost Kailey Cost tab

|gtr1
|-------------------------------------------------------------------|
|-------------------------------------------------------------------|
|-------------------------------------------------------------------|
|-------7-7-7------6-6-6------7-7-7------6-6-6------7-7-7------6-6-6|
|-------5-5-5------5-5-5------5-5-5------5-5-5------5-5-5------5-5-5|
|-------------------------------------------------------------------|
|
|gtr2
|-------------------------------------------------------------------|
|-------------------------------------------------------------------|
|-------------------------------------------------------------------|
|-0-0-0-x\\\-0-0-0-x\\\-0-0-0-x\\\-0-0-0-x\\\-0-0-0-x\\\-0-0-0-x\\\-|
|-0-0-0-x\\\-0-0-0-x\\\-0-0-0-x\\\-0-0-0-x\\\-0-0-0-x\\\-0-0-0-x\\\-|
|-0-0-0-x\\\-0-0-0-x\\\-0-0-0-x\\\-0-0-0-x\\\-0-0-0-x\\\-0-0-0-x\\\-|


|gtr 1
|-------------------------------------------------------------------|
|-------------------------------------------------------------------|
|-------------------------------------------------------------------|
|--------------------------------------------------------------[7]--|
|--8-------7-5-8---------7-8-3-----8-------7-5-8---------5h7h8------|
|----0-0-0-------0-0-0-0-------------0-0-0-------0-0-0-0------------|
|    . . .       . . . .             . . .       . . . .
|gtr 2
|-------------------------------------------------------------------|
|-------------------------------------------------------------------|
|-------------------------------------------------------------------|
|--7-------5-3-7---------5-7-2-----7-------5-3-7---------3h5h7-[7]--|
|-------------------------------------------------------------------|
|----0-0-0-------0-0-0-0-------------0-0-0-------0-0-0-0------------|
     . . .       . . . .             . . .       . . . .
|gtr 1
|-------------------------------------------------------------------|
|-------------------------------------------------------------------|
|-------------------------------------------------------------------|
|-------------------------------------------------------------------|
|--8-------7-5-8---------7-8-3-----8-------7-5-8---------7-8-3------|
|----0-0-0-------0-0-0-0-------------0-0-0-------0-0-0-0------------|
|    . . .       . . . .             . . .       . . . .
|gtr 2
|-------------------------------------------------------------------|
|-------------------------------------------------------------------|
|-------------------------------------------------------------------|
|--7-------5-3-7---------5-7-2-----7-------5-3-7---------5-7-2------|
|-------------------------------------------------------------------|
|----0-0-0-------0-0-0-0-------------0-0-0-------0-0-0-0------------|
     . . .       . . . .             . . .       . . . .

VERSE
e|-------------------------------------------------------------------------|
B|-------------------------------------------------------------------------|
G|-10------14-------17------19-------10------12-------14-------17----------|
D|-x-------x--------x-------x--------x-------x--------x--------x-----------|
A|-8(x16)--12(x16)--15(x16)-17(x16)--8(x16)--10(x16)--12(x16)--15(x9)------|
D|-------------------------------------------------------------------------|

CHORUS
e|-------------------------------------------------------------------------|
B|-------------------------------------------------------------------------|
G|-14-------10------9------12------15-------12------6------9---------------|
D|-x--------x-------x------x-------x--------x-------x------x---------------|
A|-12(x16)--8(x8)---7(x4)--10(x4)--13(x16)--10(x8)--4(x4)--7(4)------------|
D|-------------------------------------------------------------------------|

(repeat the whole thing from the sick intro riff)

breakdown
|--------------------------------------------------------------------------|
|--------------------------------------------------------------------------|
|-7-7-7-------7-7-7---------------7-7-7-------7-7-7------------------------|
|-6-6-6-------6-6-6---------------6-6-6-------6-6-6------------------------|
|-5-5-5-------5-5-5---------------5-5-5-------5-5-5------------------------|
|-------0-5p0-------0-5p0-6p0-5p0-------0-5p0-------0-5p0-6p0-5p0----------|
|       .           .                   .           .
|--------------------------------------------------------------------------|
|--------------------------------------------------------------------------|
|--------------------------------------------------------------------------|
|--------------------------------------------------------------------------|
|-6p5---------6p5-----------------6p5---------6p5--------------------------|
|-----5-0-5p0-----5-0-5p0-6p0-5p0-----5-0-5p0-----5-0-5p0-6p0-5p0----------|
        .           .                   .           .
|--------------------------------------------------------------------------|
|--------------------------------------------------------------------------|
|-7-7-7-------7-7-7---------------7-7-7-------7-7-7------------------------|
|-6-6-6-------6-6-6---------------6-6-6-------6-6-6---0-0------------------|
|-5-5-5-------5-5-5---------------5-5-5-------5-5-5---0-0------------------|
|-------0-5p0-------0-5p0-6p0-5p0-------0-5p0---------0-0------------------|
|       .           .                   .             . .
|--------------------------------------------------------------------------|
|--------------------------------------------------------------------------|
|--------------------------------------------------------------------------|
|-----------------------------------------------------0-0------------------|
|-6p5---------6p5-----------------6p5---------6p5-----0-0------------------|
|-----5-0-5p0-----5-0-5p0-6p0-5p0-----5-0-5p0-----5---0-0------------------|
        .           .                   .             . .


both gtrs
|----------------------------------------------------------------------------|
|----------------------------------------------------------------------------|
|----------------------------------------------------------------------------|
|----------------------------------------------------------------------------|
|-0-0--7\3--0--6\2p0-3p0------0-0--7\3-0-0-0-0-3--3--3---2--2--2-------------|
|-0-0--7\3--0--6\2p0-3p0-[5]--0-0--7\3-0-0-0-0-3--3--3---2--2--2-------------|
  . .       .                 . .      . . . . .  .  .   .  .  .
|----------------------------------------------------------------------------|
|----------------------------------------------------------------------------|
|----------------------------------------------------------------------------|
|----------------------------------------------------------------------------|
|-0-0--7\3--0--6\2p0-3p0-[3]--0-0--7\3-0-0-0-0-3--3--3---2--2--2-------------|
|-0-0--7\3--0--6\2p0-3p0------0-0--7\3-0-0-0-0-3--3--3---2--2--2-------------|
  . .       .                 . .      . . . . .  .  .   .  .  .
then just play the intro
|gtr1
|-------------------------------------------------------------------|
|-------------------------------------------------------------------|
|-------------------------------------------------------------------|
|-------7-7-7------6-6-6------7-7-7------6-6-6------7-7-7------6-6-6|
|-------5-5-5------5-5-5------5-5-5------5-5-5------5-5-5------5-5-5|
|-------------------------------------------------------------------|
|
|gtr2
|-------------------------------------------------------------------|
|-------------------------------------------------------------------|
|-------------------------------------------------------------------|
|-0-0-0-x\\\-0-0-0-x\\\-0-0-0-x\\\-0-0-0-x\\\-0-0-0-x\\\-0-0-0-x\\\-|
|-0-0-0-x\\\-0-0-0-x\\\-0-0-0-x\\\-0-0-0-x\\\-0-0-0-x\\\-0-0-0-x\\\-|
|-0-0-0-x\\\-0-0-0-x\\\-0-0-0-x\\\-0-0-0-x\\\-0-0-0-x\\\-0-0-0-x\\\-|

and then a long piano outro

. = palm mute
\ = slide
x\ = pick slide
p = pull off
h = hammer on
x = dead note
[5] = pinch harmonic

tabbed by Harrisfun. thats just how i play it and it sounds good.

well, this is my first tab, tell me what you think. corrections are welcome.
Tap to rate this tab
# A B C D E F G H I J K L M N O P Q R S T U V W X Y Z