Chiodos - Lexington tab

Intro Guitar 1: (x2)
|------------------------------------|
|------------------------------------|
|----------------222333555-----------|
|-555555333333000--------------------|
|------------------------------------| 
|------------------------------------|

Intro Guitar 2: (x2)
|------------------------------------|
|-888888666666-----------------------|
|-------------777777777777-----------|
|------------------------------------|
|------------------------------------|
|------------------------------------|

Pre-Chorus:
|----------------------------|
|-t11p8h10(x8)-t13p10h11(x8)-|
|----------------------------|x2
|----------------------------|
|----------------------------|
|----------------------------|

Chorus: (x2)
|----------------------------------------------------------------------------------------|
|----------------------------------------------------------------------------------------|
|12-12-12121212-12-12-12121212-111-1111-111-1111-8-8-8888-8-8-8888-7-7-7777-1111-1111----| 
|x--x--x-x-x-x--x--x--x-x-x-x--x-x-xxxx-x-x-xxxx-x-x-xxxx-x-x-xxxx-x-x-xxxx-x-xx-xxxx----|
|10-10-10101010-10-10-10101010-9-9-9999-9-9-9999-6-6-6666-6-6-6666-5-5-5555-9-99-9999/10~|
|----------------------------------------------------------------------------------------|

Pre-Chorus:
|----------------------------|
|-t11p8h10(x8)-t13p10h11(x8)-|
|----------------------------|x2
|----------------------------|
|----------------------------|
|----------------------------|

Chorus: (x2)
|----------------------------------------------------------------------------------------|
|----------------------------------------------------------------------------------------|
|12-12-12121212-12-12-12121212-111-1111-111-1111-8-8-8888-8-8-8888-7-7-7777-1111-1111----| 
|x--x--x-x-x-x--x--x--x-x-x-x--x-x-xxxx-x-x-xxxx-x-x-xxxx-x-x-xxxx-x-x-xxxx-x-xx-xxxx----|
|10-10-10101010-10-10-10101010-9-9-9999-9-9-9999-6-6-6666-6-6-6666-5-5-5555-9-99-9999/10~|
|----------------------------------------------------------------------------------------|
			
Solo:
|----------------------------------------------------------------------------------------|
|-----8~--------7~-------6~----------4~-----8~----------10~-------11~--------15b16-------|
|----7--7------5--------5--5-------3-------7--7--------8---------10--10-----14-----------|
|---8----8----7--------7----7----5--------8----8-----10---------12----12---15------------|
|-10------10-9--------8------8-6--------10------10-12----------13------13-17-------------|
|----------------------------------------------------------------------------------------|

|----------18-20-18-20-18-20-18-----------------------------------|
|-20-19-20----------------------20-19-15-18-16b18-----------------|tremelo pick each note.
|-----------------------------------------------------------------|
|-----------------------------------------------------------------|
|-----------------------------------------------------------------|
|-----------------------------------------------------------------|

Chorus: (x2)
|----------------------------------------------------------------------------------------|
|----------------------------------------------------------------------------------------|
|12-12-12121212-12-12-12121212-111-1111-111-1111-8-8-8888-8-8-8888-7-7-7777-1111-1111----| 
|x--x--x-x-x-x--x--x--x-x-x-x--x-x-xxxx-x-x-xxxx-x-x-xxxx-x-x-xxxx-x-x-xxxx-x-xx-xxxx----|
|10-10-10101010-10-10-10101010-9-9-9999-9-9-9999-6-6-6666-6-6-6666-5-5-5555-9-99-9999/10~|
|----------------------------------------------------------------------------------------|
Tap to rate this tab
 
# A B C D E F G H I J K L M N O P Q R S T U V W X Y Z