Song name
# A B C D E F G H I J K L M N O P Q R S T U V W X Y Z

Chiodos - Bulls Make Money Bears Make Money Pigs Get Slaughtered tab

Bulls Make Money, Bears Make Money, Pigs Get Slaughtered

Intro  

Guitar 1
E|-5-05-05-5-05-05-10-0 10-0 10-6-06-06-|
B|-6-66-66-6-66-66-11-1111-1111-8-88-88-|
G|-7-77-77-7-77-77-12-1212-1212-9-99-99-|
D|--------------------------------------| (x2)
A|--------------------------------------|
D|--------------------------------------|

Verse 1 

Guitar 1
E|-----------------------|
B|-----------------------|
G|-----------------------|
D|-00--0000-55--22x22222-| (x4)
A|-00--0000-55--22x22222-|
D|-00--0000-55--22x22222-|

Guitar 2 (Comes in on 3rd guitar 1 part)
E|-5-05-05-5-05-05-10-0 10-0 10-6-06-06-|
B|-6-66-66-6-66-66-11-1111-1111-8-88-88-|
G|-7-77-77-7-77-77-12-1212-1212-9-99-99-|
D|--------------------------------------| (x2)
A|--------------------------------------|
D|--------------------------------------|

Pre-Chorus 

Guitar 2
E|-5-05-05-5-05-05-5-05-05-5----|
B|-6-66-66-6-66-66-6-66-66-6----|
G|-7-77-77-7-77-77-7-77-77-7----|
D|------------------------------|
A|------------------------------|
D|------------------------------|

Chorus 1 

Guitar 1
E|--------------------------------------------------------------|
B|-------------13-----------------------------------------------|
G|---10--14-10-----17--21-17-----15--19-15------12--15-12-14----|
D|-12--12--------19--19-----19-17--17------17-14--14------------| (x2)
A|--------------------------------------------------------------|
D|--------------------------------------------------------------|

Guitar 2
E|-------------------------------------|
B|-------------------------------------|
G|---------22222222--------------------|
D|00000000-22222222-55555555-22222222--| (x2)
A|00000000-00000000-55555555-22222222--|
D|00000000----------55555555-22222222--|

Funky Interlude 

Guitar 1
E|-----------6-----------------------------------------|
B|-10---8------8----6---------10---8---11--8-----5-----|
G|---10---9-7----9----7-6-9-10--10---9---9---9-6---6---|
D|-----------------------------------------------------| (x2)
A|-----------------------------------------------------|
D|-----------------------------------------------------|

Verse 2 

Guitar 1
E|-----------------------|
B|-----------------------|
G|-----------------------|
D|-00--0000-55--22x22222-| (x2)
A|-00--0000-55--22x22222-|
D|-00--0000-55--22x22222-|

Guitar 2 (Comes in on 3rd guitar 1 part) 
E|-5-05-05-5-05-05-10-0 10-0 10-6-06-06-|
B|-6-66-66-6-66-66-11-1111-1111-8-88-88-|
G|-7-77-77-7-77-77-12-1212-1212-9-99-99-|
D|--------------------------------------| (x2)
A|--------------------------------------|
D|--------------------------------------| 

Then, 

Guitar 1
E|----------------|
B|----------------|
G|----------------|
D|0000000055552222| (x2)
A|0000000055552222|
D|0000000055552222|

Breakdown Pt. 1
Guitar 1
E|------------------------------------------------------|
B|------------------------------------------------------|
G|------------------------------------------------------|
D|0-0-0-0----------0---0-0-0-0----------0---0-0-0-0-----|
A|0-0-0-0----------0---0-0-0-0----------0---0-0-0-0--3ph|
D|0-0-0-0----------0---0-0-0-0----------0---0-0-0-0-----|
  p p p p          p   p p p p          p   p p p p

Guitar 2 
E|----------------------------------------------------------------------|
B|----------------------------------------------------------------------|
G|----------------------------------------------------------------------|
D|----------------------------------------------------------------------| (2x)
A|-5p0---5p0---5p0-8p0---8p0---8p0-10p0---10p0---10p0-7p0---7p0---7p4---|
D|-----0-----0---------0-----0----------0------0----------0-----0-------|
       *     *         *     *          *      *          *     *
Breakdown Pt. 2 
Both Guitars 
E|----------------------------------------------------------------------|
B|----------------------------------------------------------------------|
G|----------------------------------------------------------------------|
D|----------------------------------------------------------------------| (x4)
A|-5p0---5p0---5p0-8p0---8p0---8p0-10p0---10p0---10p0-7p0---7p0---7p4---|
D|-----0-----0---------0-----0----------0------0----------0-----0-------|
       *     *         *     *          *      *          *     *
Chorus 
Guitar 1
E|--------------------------------------------------------------|
B|-------------13-----------------------------------------------|
G|---10--14-10-----17--21-17-----15--19-15------12--15-12-14----|
D|-12--12--------19--19-----19-17--17------17-14--14------------| (x4)
A|--------------------------------------------------------------|
D|--------------------------------------------------------------|

Guitar 2
E|-------------------------------------|
B|-------------------------------------|
G|---------22222222--------------------|
D|00000000-22222222-55555555-22222222--| (x4)
A|00000000-00000000-55555555-22222222--|
D|00000000----------55555555-22222222--|
   (On the First time through Guitar 1, donít play the open D power chord, begin at the A)

Outro
E|---------------------|
B|-3~---3~---3~---3~---|
G|-2~---2~---2~---2~---| Abuse pedals you have to create desired sonic cacophony
D|-0~---0~---0~---0~---|
A|-0~---0~---0~---0~---|
D|-0~---0~---0~---0~---|

*  palm mute
ph pinch harmonic
~  let ring out
x  mute note
Tap to rate this tab
 
# A B C D E F G H I J K L M N O P Q R S T U V W X Y Z