Chiodos - A Letter From Janelle Acoustic chords

Highlighted       Show chord diagrams
I'm not going to lie... I copy and pasted from other versions in writing
this one. However, this version is unique, this is my first tab, and I don't
see how you people type all this stuff!

Anyways, I play the chords a little differently than the way the other guy
wrote 'em. I like the way mine sound just a little bit better. I've had
several people tell me they like they way I play it more so than the album
version. I think those people are nuts, but either way, I figured I'd write
it down here and see what the UG community thinks. PLEASE comment. (I'm not
sure what the "Dm Var" is actually. Please let me know if you figure it out. lol)

    Verse 1 / Chorus       Part 2 of Verse 2
         
   Bb  C   Dm  Dm/F DmV | Dm  Dm/F DmV sC  sC7
e|     0   1   1    1   | 1   1    1   0   0
G| 3   1   3   3    3   | 3   3    3   1   1
B| 3   0   2   2    0   | 2   2    0   0   0
D| 3   2   0   3    3   | 0   3    3       X
A| 1   3                |                  0<(hit only on 
E|                      |                     first strum)
-----Dm/F: I'm guessing at this, its probably wrong.
----- DmV: The "V" stands for variation. I have no idea what that is either.
-----  sC: Stands for "small C", cuz it only uses 3 strings
----- sC7: Stands for "small C 7", because of the open A string
----- ... yes, I know this tab is probably ridiculous.


   Intro
e|------------------------------------------------------------|
b|------------------------------------------------------------|
g|14--------12--------10--9--10--12h10--10-------9------10----|
d|----------10--------12----------------12--------------------|
a|12----------------------------------------------------------|
e|------------------------------------------------------------|
                                         We make the sun...

    Bb
                 ...shine
       C      Dm  
We make, come on and move with me, move with me,
Dm/F              DmV
move with me, move, with, me...

Bb

Bb
Don't you think I could tell
C
That you were trying to trying to make
Dm   Dm/F         DmV
Fool out of me, a fool out of me
Bb
Don't you think I could tell
C
That you were trying to trying to make
Dm   Dm/F         DmV
Fool out of me, a fool out of me (2x)

E|6--1-/-8---------6------8-\-1----|
   so remember who you really are

Bb     C
It's so easy to get lost
      Dm
In constantly having to present
    Dm/F     DmV
Whatever face you believe
Bb       C           Dm   Dm/F              DmV
A person wants to see...  rather than your own
Dm      Dm/F         DmV    sC
Yet we hesitate to surrender all of our insecurities
sC7
Move with me, move with me
Dm          Dm/F      DmV   sC
Only the ones we are most comfortable relinquishing
sC7
Move with me, move with me

Bb
Don't you think I could tell
C
That you were trying to trying to make
Dm   Dm/F         DmV
Fool out of me, a fool out of me
Bb
Don't you think I could tell
C
That you were trying to trying to make
Dm   Dm/F         DmV
Fool out of me, a fool out of me (2x)

E|6--1-/-8---------6------8-\-1----|
(no lyrics that time)

I actually do the picking pattern when I play this part. It seems more
fitting to me, so I'm posting it. I'll leave the chords, tho.

Outro:
|-10----13-12------12----12--------|-10----13-12------12----12--------|
|---10-------13------13------13----|---10-------13------13------13-15-|
|-----10-------14------14------14--|-----10-------14------14----------|x4
|----------------------------------|----------------------------------|
|----------------------------------|----------------------------------|
|----------------------------------|----------------------------------|


D
Such a paradox
Bb      C         Bb
Isn't it, isn't it
D
Such a paradox
Bb      C         Bb
Isn't it, isn't it
D
Such a paradox
Bb      C         Bb
Isn't it, isn't it
D
Isn't it, isn't it

Isn't it, isn't it
Tap to rate this tab
 
# A B C D E F G H I J K L M N O P Q R S T U V W X Y Z