Song name
# A B C D E F G H I J K L M N O P Q R S T U V W X Y Z

Chiodos - Lexington tab

So every guitar player i know has wanted
to learn Lexington's piano intro on guitar. 
So i learned the song on piano then sounded 
it out from there. I hope you all like the tab. 

Please rate, Thank you

So its pretty easy only getting the up down 
picking is a pain for a good minute or two. 
Have fun.  

Part One
e|--------------------|
b|----------11---10---|
G|-------12-----------|
D|----12-------12-----|
A|-10-----------------|
D|--------------------|

Part Two
e|---------10---------|
b|------------10------|
G|------10-------10---|
D|---10---------------|
A|-8------------------|
D|--------------------|

Part Three
e|-------------------------------------|
b|----------------10-11-10----------10-|
G|----------10-12----------12-10-12----|
D|-------12----------------------------|
A|----12-------------------------------|
D|-12----------------------------------|

Now if your one of them people who like to 
play in standard this is the part three tab 
you will play, pretty much the same thing 
just one note changes.

Part Three 
e|-------------------------------------|
b|----------------10-11-10----------10-|
G|----------10-12----------12-10-12----|
D|-------12----------------------------|
A|----12-------------------------------|
E|-10----------------------------------|
Tap to rate this tab
 
# A B C D E F G H I J K L M N O P Q R S T U V W X Y Z