Song name
# A B C D E F G H I J K L M N O P Q R S T U V W X Y Z

Chiodos - Intensity In Ten Cities tab

-------------------------------------------------------------------------------
                      INTENSITY IN TEN CITIES - Chiodos
-------------------------------------------------------------------------------
Tabbed by: Mickey

Tuning: Standard


Chords used in this song:
  G          G/F#       Em         C          Em9
|-3--------|-3--------|-0--------|-0--------|-0----|
|-0--------|-0--------|-0--------|-1--------|-3----|
|-0--------|-0--------|-0--------|-0--------|-0----|
|-0--------|-0--------|-2--------|-2--------|-4----|
|-2--------|-2--------|-2--------|-3--------|-5----|
|-3--------|-2--------|-0--------|----------|-0----|



Intro:  
|---------3-----5-|-----3-------2-3-|---------3-----5-|-----7---5---3----|
|-------3---3-----|-3-----3---3-----|-------3---3-----|-3-------------3--|
|-----0-------0---|---0-----0-------|-----0-------0---|---0---0---0------|
|---0-------------|-----------------|---0-------------|------------------|
|-----------------|-----------------|-----------------|------------------|
|-3---------------|-----------------|-2---------------|------------------|


|---------3-----5-|-----3-------2-3-|---------3-----5-|-----------------|
|-------3---3-----|-3-----3---3-----|-------3---3-----|-3---3---3---3---|
|-----0-------0---|---0-----0-------|-----0-------0---|---0---0---0---0-|
|---0-------------|-----------------|---0-------------|-----------------|
|-----------------|-----------------|-----------------|-----------------|
|-0---------------|-----------------|-2---------------|-----------------|



G                             G/F#               Em
I'm not the one that you want, I'll only let you down.

        C                Em9	
And I'm pretty sure that you've caught on.

    G                     G/F#             Em    C     Em9
And you can say that 'Oh, I'm just feeling sorry for my...'



Em                           Em9
   I think it's every time I walk into a room

  C                        Em9
a silence so sudden that I seem to hear it

Em                     Em9         C               Em9
   Contact saying that you are the rain on their parade.



    C                  Em9          Em
And how long could you hang on to a word?

         C                  Em9          Em
Tell me, how long could you hang on to a word?



G                             G/F#               Em
I'm not the one that you want, I'll only let you down.

        C                Em9	
And I'm pretty sure that you've caught on.

    G                     G/F#             Em    C     Em9
And you can say that 'Oh, I'm just feeling sorry for myself'



Em	
   Or maybe it's all eyes on him

Em9                       C
   in love with ego and intention

    Em9                               Em
the eyes that are just begging me for more.

                       Em9
This is gone and I can see it

     C
your head is full of words,

        Em9
full of words that don't mean anything.



    C                  Em9          Em
And how long could you hang on to a word?

         C                  Em9          Em
Tell me, how long could you hang on to a word?



G                             G/F#                 Em
I'm not the one that you want, I'll always let you down.

        C                Em9	
And I'm pretty sure that you've caught on.

    G                     G/F#             Em    C     Em9
And you can say that 'Oh, I'm just feeling sorry for myself'

G                             G/F#                 Em
I'm not the one that you want, I'll always let you down.

        C                Em9	
And I'm pretty sure that you've caught on.

    G                     G/F#             Em    C     Em9
And you can say that 'Oh, I'm just feeling sorry for myself'

Outro:
|-------3-----5-3-|-------3-----7-5-|-------3-----5-3-|-------3-----2---|-3---------------|
|---------3-------|---------3-------|---------3-------|---------3-----3-|-3---------------|
|-----0-----0-----|-----0-----0-----|-----0-----0-----|-----0-----0-----|-----------------|
|---0-------------|---0-------------|---0-------------|---0-------------|-----------------|
|-----------------|-3---------------|-----------------|-3---------------|-----------------|
|-3---------------|-----------------|-3---------------|-----------------|-----------------|

Tap to rate this tab
 
# A B C D E F G H I J K L M N O P Q R S T U V W X Y Z