Chiodos - Beautiful Blue Eyes tab

hey this is my first tab! im almost positive this is correct! awesome song and fun to play
Intro
--------------------------------------------------------------------|
--------------------------------------------------------------------|
-66/777777-111111111111-99999-66/777777-44444-22222-----------------|
-000000000--0-0-0-0-0-0-00000-000000000-00000-00000-----------------|
-44/555555--9-9-9-9-9-9-77777-44/555555/22222-00000-----------------|
--------------------------------------------------------------------| x2

Verse
--------------------------------------------------------------------|
--------------------------------------------------------------------|
-77xx44-------------------------------------------------------------|
-77xx44xx44xx5x5x5--------------------------------------------------|
-55xx22xx44xx5x5x5--------------------------------------------------|
-------xx22xx3x3x3--------------------------------------------------| x4

Chorus
--------------------------------------------------------------------|
-----------444x22-----------777x66----------------------------------|
-44/55555xx444x22-44/55555xx777x66----------------------------------|
-44/55555xx222x00-44/55555xx555x44----------------------------------|
-22/33333xx-------22/33333xx----------------------------------------| x2

End on---------------------------------------------------------------------
-------|
-------|
---7---|
---7---|
---5---|
-------|

-----Order----------------------------------------------------------------
Intro
Verse
Chorus
Intro
Verse
Chorus
Intro
Chours
Outro
Tap to rate this tab
 
# A B C D E F G H I J K L M N O P Q R S T U V W X Y Z