Song name
# A B C D E F G H I J K L M N O P Q R S T U V W X Y Z

Chiodos - Thomas Shredding tab

Guitar 1 (Thomas)

E |-----------------------------------------------------(3x)|-----------------------------|
B|----------------------------------------------0-9-12------|-----------------------------|
G|-------------0-7-10-------------0-7-10-0-7-10-------------|-------------0-7-10-------7--|n}
D|-0-6-9-0-6-9--------0-6-9-0-6-9---------------------------|-0-6-9-0-6-9--------0-6-9----|
A|----------------------------------------------------------|-----------------------------|
D|----------------------------------------------------------|-----------------------------|

Guitar 2 (Pat)

E|-----------------------------------------------------------|
B|-----------------------------------------------------------| (4x)
G|-----------------------------------------------------------|
D|-----------------------------------------------------------|
A|--0---0---0-0--00--0--0000----0---0---0-0--00--------------|
D|--0---0---0-0--00--0--0000----0---0---0-0--00--3h6--3h5----|
Tap to rate this tab
# A B C D E F G H I J K L M N O P Q R S T U V W X Y Z