Song name
# A B C D E F G H I J K L M N O P Q R S T U V W X Y Z

Chiodos - All Nerids Beware tab

This song is a good song for intermediate players.
tuning: DADGBe
fig 1 (intro

|--------------------------------|
|--------- -10's- ---------------|
|--------------------------------|
|---------8--8-8--8---8--------8-|
|-101010-10-1010-101010-10101010-|
|--------------------------------|
   . . .            .   . . . .

|-------------------------|
|-------------------------|
|----------------7h8p7----|
|-----7-7---7-7--------8--|
|-888-8-8-8-8-8-----------|
|-------------------------|
  ...     .

|----------------------|
|----------------------|
|----------10----------|
|-----5-55-------5---5-|
|-666-6-66----66-6-6-6-|
|----------------------|
  ...         ..   .

|-----------------------|
|-----------------------|
|-----------------------|
|-----7-77---7-77-----7-|
|-888-8-88-8-9-99-999-9-|
|-----------------------|
  ...      .      ...

repeat that and then

|------------------|
|------------------|
|------------------|
|------------------|
|------------------|
|-0h1////////////--


|--------|
|--------|
|--------|
|--------|
|--------|
|-<3333>-


fig 2 (verse)

|---------------------------------|
|---------------------------------|
|---------------------------------|
|-7--7---8--8---10--10---11--11---| play 4 times
|-5-55-5-6-66-6-8-8-8-8--9-9-9--9-|
|---------------------------------|
    .  .   .  .   .   .    .    .


fig 3

chorus
*i only know the lead part

|---------------------------------|
|---------------------------------|
|----0h8h10-7-----0h8h10-7---7--7-|
|-88---------8-88---------8-8--8--| play 8 times
|---------------------------------|
|---------------------------------|
  ..           ..           .. ..


thats all i know.


sorry. but enjoy whats there.
Tap to rate this tab
 
# A B C D E F G H I J K L M N O P Q R S T U V W X Y Z