Song name
# A B C D E F G H I J K L M N O P Q R S T U V W X Y Z

Chiodos - Whos Sandie Jenkins tab

#----------------------------------PLEASE NOTE---------------------------------#
#This file is the author's own work and represents their interpretation of the #
#song. You may only use this file for private study, scholarship, or research. #
#------------------------------------------------------------------------------##

                              WHO'S SANDIE JENKINS
                             As recorded by Chiodos
                 (From the 2005 Album ALL'S WELL THAT ENDS WELL)

Words and Music by Chiodos
Arranged by Chiodos
Transcribed by Jonathan Rose

Gtr I (D A D G B E) - 'Dist. Left'
Gtr II (D A D G B E) - 'Dist. Right'
Gtr III (D A D G B E) - 'Synth Left'
Gtr IV (D A D G B E) - 'Synth Right'
Gtr V (D A D G B E) - 'Synth Center'
Gtr VI (D A D G B E) - 'Piano'

 Drums
  Dancefight Q=186
  N.C.
 4/4
  Gtrs III, IV
  Wx2
|--------||
|--------||
|--------||
|--------||
|--------||
|--------||


 Intro
  D5
  Gtr IV  Gtr III                 Gtr IV   Gtr III
   E   E   E   E   E   E   Q       E   E    E   E   E   E   Q
|-22--22------------------------|-22--22------------------------|
|-(3)-(3)-22--22--23--23--------|-(3)-(3)--22--22--23--23-------|
|---------(2)-(2)-(3)-(3)-24----|----------(2)-(2)-(3)-(3)-24---|
|-------------------------(5)---|--------------------------(5)--|
|-------------------------------|-------------------------------|
|-------------------------------|-------------------------------|
|
| Gtrs I, II
|  PM------------------------------------------------------------
|  E   E   E   E   Q       E  E    E   H..
|-------------------------------|-------------------------------|
|-------------------------------|-------------------------------|
|-------------------------------|-------------------------------|
|-------------------------------|-------------------------------|
|--0---0---0---0-----------0--0-|--0----------------------------|
|--0---0---0---0-----------0--0-|--0----------------------------|


  Gtr IV  Gtr III                 Gtr IV   Gtr III
   E   E   E   E   E   E   Q       E   E    E   E   E   E   Q
|-22--22------------------------|-22--22------------------------|
|-(3)-(3)-22--22--23--23--------|-(3)-(3)--22--22--23--23-------|
|---------(2)-(2)-(3)-(3)-24----|----------(2)-(2)-(3)-(3)-24---|
|-------------------------(5)---|--------------------------(5)--|
|-------------------------------|-------------------------------|
|-------------------------------|-------------------------------|
|
|-------------------------------------|
|  E   E   E   E   Q       E  E    E   H..
|-------------------------------|-------------------------------|
|-------------------------------|-------------------------------|
|-------------------------------|-------------------------------|
|-------------------------------|-------------------------------|
|--0---0---0---0-----------0--0-|--0----------------------------|
|--0---0---0---0-----------0--0-|--0----------------------------|


  D5
  Gtr IV  Gtr III                 Gtr IV   Gtr III
   E   E   E   E   E   E   Q       E   E    E   E   E   E   Q
|-22--22------------------------|-22--22------------------------|
|-(3)-(3)-22--22--23--23--------|-(3)-(3)--22--22--23--23-------|
|---------(2)-(2)-(3)-(3)-24----|----------(2)-(2)-(3)-(3)-24---|
|-------------------------(5)---|--------------------------(5)--|
|-------------------------------|-------------------------------|
|-------------------------------|-------------------------------|
|
|  PM------------------------------------------------------------
|  E   E   E   E   Q       E  E    E   H..
|-------------------------------|-------------------------------|
|-------------------------------|-------------------------------|
|-------------------------------|-------------------------------|
|-------------------------------|-------------------------------|
|--0---0---0---0-----------0--0-|--0----------------------------|
|--0---0---0---0-----------0--0-|--0----------------------------|


  Gtr IV  Gtr III                 Gtr V
   E   E   E   E   E   E   Q       E   E     E    E    E    E    Q
|-22--22------------------------|-22--22---(22)-(22)-(22)-(22)-(22)--||
|-(3)-(3)-22--22--23--23--------|-(3)-(3)---22---22---23---23--------||
|---------(2)-(2)-(3)-(3)-24----|-----------(2)--(2)--(3)--(3)--24---||
|-------------------------(5)---|-------------------------------(5)--||
|-------------------------------|------------------------------------||
|-------------------------------|------------------------------------||
|
|-------------------------------------|
|  E   E   E   E   Q       E  E    E   H..
|-------------------------------|------------------------------------||
|-------------------------------|------------------------------------||
|-------------------------------|------------------------------------||
|-------------------------------|------------------------------------||
|--0---0---0---0-----------0--0-|--0---------------------------------||
|--0---0---0---0-----------0--0-|--0---------------------------------||


   "Forget I even called.."
    D5             N.C.
    Gtr V
     Q    Q    Q    Q     Q    Q    Q   Q
||-----------------17--|-15----------------|
||o-15-----------------|------18---15--17--|
||-------15---14---14--|-12----------------|
||--12-----------------|------15---12--14--|
||o------13---12-------|-------------------|
||---------------------|-------------------|
|
|   Gtr I
|    PM-------|
|    E E  E E  E E  Q     E E  E E  q   Q
||---------------------|-------------------|
||o--------------------|-------------------|
||------------------7--|----9--9-9--9---9--|
||------------------x--|----x--x-x--x---x--|
||o--0-0--0-0--0----5--|----7--7-7--7---7--|
||---0-0--0-0--0-------|-------------------|
|
|   Gtr II
|    PM-------|
|    E E  E E  E E  Q     E E  E E  q   Q
||---------------------|-------------------|
||o--------------------|-------------------|
||------------------7--|----9--9-9--9---9--|
||------------------x--|----x--x-x--x---x--|
||o--0-0--0-0--0----5--|----7--7-7--7---7--|
||---0-0--0-0--0-------|-------------------|


   Q     Q     Q   Q     Q     Q     Q     Q
|-----------------17--|-15----17----18----17------||
|-15------------------|--------------------------o||
|-------15----14--14--|-12----14----15----14------||
|-12------------------|---------------------------||
|-------13----12------|--------------------------o||
|---------------------|---------------------------||
|
|  E  E  E  E  q   Q     E  E  E  E  E  E  E  E
|---------------------|---------------------------||
|---------------------|----15-15-15-15-15-15-15--o||
|----10-10-10-10--10--|-----x--x--x--x--x--x--x---||
|-----x--x--x--x---x--|----12-12-12-12-12-12-12---||
|-----8--8--8--8---8--|--------------------------o||
|---------------------|---------------------------||
|
|  E  E  E  E  q   Q     E  E  E  E  E  E  E  E
|---------------------|---------------------------||
|---------------------|--------------------------o||
|----10-10-10-10--10--|-----3--3--3--3--3--3--3---||
|-----x--x--x--x---x--|-----x--x--x--x--x--x--x---||
|-----8--8--8--8---8--|-----1--1--1--1--1--1--1--o||
|---------------------|---------------------------||


  D5                      E5
   Q    Q    Q    Q     Q     Q     Q   Q
|----------------17--|-15------------------|
|-15-----------------|-------18----15--17--|
|------15---14---14--|-12------------------|
|-12-----------------|-------15----12--14--|
|------13---12-------|---------------------|
|--------------------|---------------------|
|
|  PM-------|              PM---------------
|  E E  E E  E E  Q     E  q     E  q   Q
|--------------------|---------------------|
|--------------------|---------------------|
|--------------------|---------------------|
|-----------------0--|---------------------|
|--0-0--0-0--0----0--|-----2-----2--2---2--|
|--0-0--0-0--0----0--|-----2-----2--2---2--|
|
|  PM-------|
|  E E  E E  E E  Q     E  E  E  E  q   Q
|--------------------|---------------------|
|--------------------|---------------------|
|-----------------7--|----12-12-12-12--12--|
|-----------------x--|-----x--x--x--x---x--|
|--0-0--0-0--0----5--|----10-10-10-10--10--|
|--0-0--0-0--0-------|---------------------|


     F5                    N.C.
   Q     Q     Q   Q     Q     Q     Q     Q
|-----------------17--|-15----17----18----17----|
|-15------------------|-------------------------|
|-------15----14--14--|-12----14----15----14----|
|-12------------------|-------------------------|
|-------13----12------|-------------------------|
|---------------------|-------------------------|
|
|-----------------|
|  E  q     E  q   Q     E  E  E  E  E  E  E  E
|---------------------|-------------------------|
|---------------------|----15-15-15-15-15-15-15-|
|---------------------|-----x--x--x--x--x--x--x-|
|---------------------|----12-12-12-12-12-12-12-|
|-----3-----3--3---3--|-------------------------|
|-----3-----3--3---3--|-------------------------|
|
|  E  E  E  E  q   Q     E  E  E  E  E  E  E  E
|---------------------|-------------------------|
|---------------------|-------------------------|
|----10-10-10-10--10--|-----3--3--3--3--3--3--3-|
|-----x--x--x--x---x--|-----x--x--x--x--x--x--x-|
|-----8--8--8--8---8--|-----1--1--1--1--1--1--1-|
|---------------------|-------------------------|


  D5                       E5
   Q    Q     Q    Q     Q     Q     Q   Q
|-----------------17--|-15------------------|
|-15------------------|-------18----15--17--|
|------15----14---14--|-12------------------|
|-12------------------|-------15----12--14--|
|------13----12-------|---------------------|
|---------------------|---------------------|
|
|  PM--------|              PM---------------
|  E E  E  E  E E  Q     E  q     E  q   Q
|---------------------|---------------------|
|---------------------|---------------------|
|---------------------|---------------------|
|------------------0--|---------------------|
|--0-0--0--0--0----0--|-----2-----2--2---2--|
|--0-0--0--0--0----0--|-----2-----2--2---2--|
|
|  PM--|      PM|
|  E E  E  E  E E  Q     E  q     E  q   Q
|---------------------|---------------------|
|---------------------|---------------------|
|---------14------14--|----12----12-12--12--|
|----------x-------x--|-----x-----x--x---x--|
|--0-0--0-12--0-0-12--|----10----10-10--10--|
|--0-0--0-----0-0-----|---------------------|


     F5                    N.C.
   Q     Q     Q   Q     Q     Q     Q     Q
|-----------------17--|-15----17----18----17----||
|-15------------------|-------------------------||
|-------15----14--14--|-12----14----15----14----||
|-12------------------|-------------------------||
|-------13----12------|-------------------------||
|---------------------|-------------------------||
|
|-----------------|
|  E  q     E  q   Q     E  E  E  E  E  E  E  E
|---------------------|-------------------------||
|---------------------|----15-15-15-15-15-15-15-||
|---------------------|-----x--x--x--x--x--x--x-||
|---------------------|----12-12-12-12-12-12-12-||
|-----3-----3--3---3--|-------------------------||
|-----3-----3--3---3--|-------------------------||
|
|  E  q     E  q   Q     E  E  E  E  E  E  E  E
|---------------------|-------------------------||
|---------------------|-------------------------||
|----10----10-10--10--|-----3--3--3--3--3--3--3-||
|-----x-----x--x---x--|-----x--x--x--x--x--x--x-||
|-----8-----8--8---8--|-----1--1--1--1--1--1--1-||
|---------------------|-------------------------||


 "Pull the hair from my.."
  D5                   N.C.      D5             N.C.
   |----3----|
   E    E    E    H.              +W
|------------------------------|-----------------------------|
|-15---17---18---15------------|-(15)------------------------|
|------------------------------|-----------------------------|
|-12---14---15---12------------|-(12)------------------------|
|------------------------------|-----------------------------|
|------------------------------|-----------------------------|
|
| Gtr I
|  PM----------------| ~           PM---------|          ~
|                                               |--3---|
|  S S    S    S  E  E H           S  S S S E E E E    E Q
|------------------------------|-----------------------------|
|------------------------------|-----------------------------|
|----------------------7-------|----------------7-9---10-9---|
|------------------------------|-----------------------------|
|--0-0----0----0--0--0---------|---0--0-0-0-0-0--------------|
|--0-0----0----0--0--0---------|---0--0-0-0-0-0--------------|
|
| Gtr II
|  E      E       E  E E E E E     E    E   E E E   E    E E
|------------------------------|-----------------------------|
|------------------------------|-----------------------------|
|--7------7-------7--7-7-7-7-7-|---7----7---7-7-7---7----7-7-|
|--x------x-------x--x-x-x-x-x-|---x----x---x-x-x---x----x-x-|
|--5------5-------5--5-5-5-5-5-|---5----5---5-5-5---5----5-5-|
|------------------------------|-----------------------------|


  D5                   N.C.      D5             N.C.
   |----3----|
   E    E    E    H.              +W
|------------------------------|----------------------------------|
|-15---17---18---17------------|-(17)-----------------------------|
|------------------------------|----------------------------------|
|-12---14---15---14------------|-(14)-----------------------------|
|------------------------------|----------------------------------|
|------------------------------|----------------------------------|
|
|  PM----------------| ~           PM---------|            ~~
|                                               |---3---|
|  S S    S    S  E  E H           S  S S S E E E  E    E  Q
|------------------------------|----------------------------------|
|------------------------------|----------------------------------|
|----------------------9-------|----------------9-10---12-10------|
|------------------------------|----------------------------------|
|--0-0----0----0--0--0---------|---0--0-0-0-0-0-------------------|
|--0-0----0----0--0--0---------|---0--0-0-0-0-0-------------------|
|
|  E      E       E  E E E E E     E    E   E E E    E     E E
|------------------------------|----------------------------------|
|------------------------------|----------------------------------|
|--3------3-------3--3-3-3-3-3-|----------------------------------|
|--x------x-------x--x-x-x-x-x-|---7----7---7-7-7----7-----7-7----|
|--1------1-------1--1-1-1-1-1-|---x----x---x-x-x----x-----x-x----|
|------------------------------|---7----7---7-7-7----7-----7-7----|


  D5                   N.C.      D5             N.C.
   |----3----|
   E    E    E    H.              +H             H
|------------------------------|----------------15------------|
|-17---18---20---18------------|-(18)-------------------------|
|------------------------------|----------------12------------|
|-14---15---17---15------------|-(15)-------------------------|
|------------------------------|------------------------------|
|------------------------------|------------------------------|
|
|  PM----------------| ~           PM---------|           ~
|                                                |--3---|
|  S S    S    S  E  E H           S  S S S E E  E E    E Q
|------------------------------|------------------------------|
|------------------------------|------------------------------|
|----------------------7-------|-----------------7-9---10-9---|
|------------------------------|------------------------------|
|--0-0----0----0--0--0---------|---0--0-0-0-0-0---------------|
|--0-0----0----0--0--0---------|---0--0-0-0-0-0---------------|
|
|  E      E       E  E E E E E     E    E   E E  E   E    E E
|------------------------------|------------------------------|
|------------------------------|------------------------------|
|--7------7-------7--7-7-7-7-7-|---7----7---7-7--7---7----7-7-|
|--x------x-------x--x-x-x-x-x-|---x----x---x-x--x---x----x-x-|
|--5------5-------5--5-5-5-5-5-|---5----5---5-5--5---5----5-5-|
|------------------------------|------------------------------|


  D5           N.C.       D5       N.C. D5       N.C.
   H            H          H             Q        Q
|-17-----------15-------|-13------------12-------13----||
|-----------------------|------------------------------||
|-14-----------12-------|-10-------------9-------10----||
|-----------------------|------------------------------||
|-----------------------|------------------------------||
|-----------------------|------------------------------||
|
|  PM--------|  ~~         PM----|       PM----|
|  S S S S E E  H          S S S S  Q    S S S S  Q
|-----------------------|------------------------------||
|-----------------------|------------------------------||
|---------------9-------|----------12------------14----||
|-----------------------|-----------x-------------x----||
|--0-0-0-0-0-0----------|--0-0-0-0-10----0-0-0-0-12----||
|--0-0-0-0-0-0----------|--0-0-0-0-------0-0-0-0-------||
|
|  E   E   E E  E E E E    E   E    E E  E   E    E E
|-----------------------|------------------------------||
|-----------------------|------------------------------||
|--3---3---3-3--3-3-3-3-|----------------5---5----5-5--||
|--x---x---x-x--x-x-x-x-|--7---7----7-7--x---x----x-x--||
|--1---1---1-1--1-1-1-1-|--x---x----x-x--3---3----3-3--||
|-----------------------|--7---7----7-7----------------||


 "Witness thoughts I.."
   E    E    q    q    q      q        q    q         q
|------13------------------|------------------------------|
|-15---15---15---15---15---|-15-------15---15--------15---|
|--------------------------|------------------------------|
|-12---12---12---12---12---|-12-------12---12--------12---|
|--------------------------|------------------------------|
|--------------------------|------------------------------|
|
|  PM----------|  ~~          PM---------|            ~~
|                                           |--3---|
|  S S  S S  E E  H           S S S S  E E  E E    E  Q
|--------------------------|------------------------------|
|--------------------------|------------------------------|
|-----------------7--------|----------------7-9---10--9---|
|--------------------------|------------------------------|
|--0-0--0-0--0-0-----------|--0-0-0-0--0-0----------------|
|--0-0--0-0--0-0-----------|--0-0-0-0--0-0----------------|
|
|  E    E    E E  E E  E E    E   E    E E  E   E     E E
|--------------------------|------------------------------|
|--------------------------|------------------------------|
|--7----7----7-7--7-7--7-7-|--7---7----7-7--7---7-----7-7-|
|--x----x----x-x--x-x--x-x-|--x---x----x-x--x---x-----x-x-|
|--5----5----5-5--5-5--5-5-|--5---5----5-5--5---5-----5-5-|
|--------------------------|------------------------------|


   q        q    q    q      q        q    q          q
|-------------------------|-------------------------------|
|-17-------17---17---17---|-17-------17---17---------17---|
|-------------------------|-------------------------------|
|-14-------14---14---14---|-14-------14---14---------14---|
|-------------------------|-------------------------------|
|-------------------------|-------------------------------|
|
|  PM---------|  ~~          PM---------|             ~~
|                                          |---3---|
|  S S S S  E E  H           S S S S  E E  E  E    E  Q
|-------------------------|-------------------------------|
|-------------------------|-------------------------------|
|----------------9--------|----------------9-10---12-10---|
|-------------------------|-------------------------------|
|--0-0-0-0--0-0-----------|--0-0-0-0--0-0-----------------|
|--0-0-0-0--0-0-----------|--0-0-0-0--0-0-----------------|
|
|  E   E    E E  E E  E E    E   E    E E  E    E     E E
|-------------------------|-------------------------------|
|-------------------------|-------------------------------|
|--3---3----3-3--3-3--3-3-|-------------------------------|
|--x---x----x-x--x-x--x-x-|--7---7----7-7--7----7-----7-7-|
|--1---1----1-1--1-1--1-1-|--x---x----x-x--x----x-----x-x-|
|-------------------------|--7---7----7-7--7----7-----7-7-|


   E    E    q    q    q      q        q    q         q
|------17------------------|------------------------------|
|-18---18---18---18---18---|-18-------18---18--------18---|
|--------------------------|------------------------------|
|-15---15---15---15---15---|-15-------15---15--------15---|
|--------------------------|------------------------------|
|--------------------------|------------------------------|
|
| Gtr I
|  PM----------|  ~~          PM---------|            ~~
|                                           |--3---|
|  S S  S S  E E  H           S S S S  E E  E E    E  Q
|--------------------------|------------------------------|
|--------------------------|------------------------------|
|-----------------7--------|----------------7-9---10--9---|
|--------------------------|------------------------------|
|--0-0--0-0--0-0-----------|--0-0-0-0--0-0----------------|
|--0-0--0-0--0-0-----------|--0-0-0-0--0-0----------------|
|
| Gtr II
|  E    E    E E  E E  E E    E   E    E E  E   E     E E
|--------------------------|------------------------------|
|--------------------------|------------------------------|
|--7----7----7-7--7-7--7-7-|--7---7----7-7--7---7-----7-7-|
|--x----x----x-x--x-x--x-x-|--x---x----x-x--x---x-----x-x-|
|--5----5----5-5--5-5--5-5-|--5---5----5-5--5---5-----5-5-|
|--------------------------|------------------------------|


   H            H          H            H
|-17-----------18-------|-20-----------22--------------||
|-----------------------|------------------------------||
|-14-----------15-------|-17-----------19--------------||
|-----------------------|------------------------------||
|-----------------------|------------------------------||
|-----------------------|------------------------------||
|
|  PM--------|  ~~         PM--------|             ~~
|                                       |---3---|
|  S S S S E E  H          S S S S E E  E  E    E  Q
|-----------------------|------------------------------||
|-----------------------|------------------------------||
|---------------9-------|---------------9-10---12-10---||
|-----------------------|------------------------------||
|--0-0-0-0-0-0----------|--0-0-0-0-0-0-----------------||
|--0-0-0-0-0-0----------|--0-0-0-0-0-0-----------------||
|
|  E   E   E E  E E E E    E   E   E E  E    E     E E
|-----------------------|------------------------------||
|-----------------------|------------------------------||
|--3---3---3-3--3-3-3-3-|---------------5----5-----5-5-||
|--x---x---x-x--x-x-x-x-|--7---7---7-7--x----x-----x-x-||
|--1---1---1-1--1-1-1-1-|--x---x---x-x--3----3-----3-3-||
|-----------------------|--7---7---7-7-----------------||


 Bridge
  D5                                    Bb5A5
  Gtrs I, II
  PM----|     PM----|       PM----|
  S S S S e E S S S S e E   S S S S e E Q  Q
|-------------------------|-------------------|
|-------------------------|-------------------|
|-------------------------|-------------------|
|-------------------------|-------------8--7--|
|-0-0-0-0-0---0-0-0-0-0---|-0-0-0-0-0---8--7--|
|-0-0-0-0-0---0-0-0-0-0---|-0-0-0-0-0---8--7--|


  Gtr V
   Q   Q   Q   E  E    +E   Q   E  E  E  Q
|-----18--17--------|-------------20-18-22--||
|-15----------18-20-|-(20)-20--20-----------||
|-----15--14--------|-------------17-15-19--||
|-12----------15-17-|-(17)-17--17-----------||
|-------------------|-----------------------||
|-------------------|-----------------------||


   *Breakdown*
    D5                                              Bb5 A5
    Gtr V
     Q        Q    Q        E  E    +E     Q      E  Q   Q
||-----------18---17-------------|------------------20--20--|
||o-15---------------------18-20-|-(20)---20-----20---------|
||-----------15---14-------------|------------------17--17--|
||--12---------------------15-17-|-(17)---17-----17---------|
||o------------------------------|--------------------------|
||-------------------------------|--------------------------|
|
|   Gtrs I, II
|    PM----|       PM----|           PM------|
|    S S S S  e E  S S S S  e  E     S  S  S S e  E  Q   Q
||-------------------------------|--------------------------|
||o------------------------------|--------------------------|
||-------------------------------|--------------------------|
||-------------------------------|-------------------8---7--|
||o--0-0-0-0--0----0-0-0-0--0----|---0--0--0-0-0-----8---7--|
||---0-0-0-0--0----0-0-0-0--0----|---0--0--0-0-0-----8---7--|


  D5                                              Bb5 A5
   Q        Q    Q        E  E    +E     Q      E  Q   Q
|----------18---17-------------|------------------20--20-----||
|-15---------------------18-20-|-(20)---20-----20-----------o||
|----------15---14-------------|------------------17--17-----||
|-12---------------------15-17-|-(17)---17-----17------------||
|------------------------------|----------------------------o||
|------------------------------|-----------------------------||
|
|  PM----|       PM----|           PM------|
|  S S S S  e E  S S S S  e  E     S  S  S S e  E  Q   Q
|------------------------------|-----------------------------||
|------------------------------|----------------------------o||
|------------------------------|-----------------------------||
|------------------------------|-------------------8---7-----||
|--0-0-0-0--0----0-0-0-0--0----|---0--0--0-0-0-----8---7----o||
|--0-0-0-0--0----0-0-0-0--0----|---0--0--0-0-0-----8---7-----||


  D5                                                Bb5 A5
   e    e    e  e  e    e    e  e    e    e    e  e  Q   Q
|-----------18-18-17---17---------|-----------------20--20--|
|-15---15-------------------18-18-|-20---20---20-20---------|
|-----------15-15-14---14---------|-----------------17--17--|
|-12---12-------------------15-15-|-17---17---17-17---------|
|---------------------------------|-------------------------|
|---------------------------------|-------------------------|
|
|  PM-----|        PM-----|          PM-----|
|  S S  S S  e  E  S S  S S  e  E    S S  S S  e  E  Q   Q
|---------------------------------|-------------------------|
|---------------------------------|-------------------------|
|---------------------------------|-------------------------|
|---------------------------------|------------------8---7--|
|--0-0--0-0--0-----0-0--0-0--0----|--0-0--0-0--0-----8---7--|
|--0-0--0-0--0-----0-0--0-0--0----|--0-0--0-0--0-----8---7--|


  D5                                                Bb5 A5
   e    e    e  e  e    e    e  e    e    e    e  e  Q   Q
|-----------18-18-17---17---------|-----------------20--20--||
|-15---15-------------------18-18-|-20---20---20-20---------||
|-----------15-15-14---14---------|-----------------17--17--||
|-12---12-------------------15-15-|-17---17---17-17---------||
|---------------------------------|-------------------------||
|---------------------------------|-------------------------||
|
|  PM-----|        PM-----|          PM-----|
|  S S  S S  e  E  S S  S S  e  E    S S  S S  e  E  Q   Q
|---------------------------------|-------------------------||
|---------------------------------|-------------------------||
|---------------------------------|-------------------------||
|---------------------------------|------------------8---7--||
|--0-0--0-0--0-----0-0--0-0--0----|--0-0--0-0--0-----8---7--||
|--0-0--0-0--0-----0-0--0-0--0----|--0-0--0-0--0-----8---7--||


 Tick-tock
  N.C.
  Gtr V
  Q  Q  Q  Q    Q  Q  Q  Q    Q  Q  Q  Q    Q  Q  Q  Q
|----x-----x--|----x-----x--|----x-----x--|----x-----x--||
|-------------|-------------|-------------|-------------||
|-x-----x-----|-x-----x-----|-x-----x-----|-x-----x-----||
|-------------|-------------|-------------|-------------||
|-------------|-------------|-------------|-------------||
|-------------|-------------|-------------|-------------||


   Interlude
    (Dm)              (C)               (Bb)             (A)
    Gtr V
     Q   Q   Q   Q     Q   Q   Q   Q    Q    Q   Q  Q     Q    Q   Q   Q
||-------x-------x--|------x-------x--|------x------x--|-------x-------x---|
||o-----------------|-----------------|----------------|-------------------|
||---x-------x------|--x-------x------|-x--------x-----|--x--------x-------|
||------------------|-----------------|----------------|-------------------|
||o-----------------|-----------------|----------------|-------------------|
||------------------|-----------------|----------------|-------------------|
|
|   Gtr VI
|    Q   Q   Q   Q     Q   Q   Q   Q    Q    Q   Q  Q    +Q    Q   Q   Q
||--------------13--|-------------12--|---------10--9--|-(9)--10--12--10---|
||o---------15------|---------13------|----------------|-------------------|
||------14----------|-----12----------|-----10---------|-------------------|
||--12--------------|-10--------------|-8--------------|-------------------|
||o-----------------|-----------------|----------------|-------------------|
||--12--------------|-10--------------|-8-----------7--|-(7)---------------|
     W                 W                H.          Q    +W


  1.
  (Bmaj13)                    (Fmaj13)
   Q   Q   Q   Q      Q    Q   Q   Q
|------x-------x--|--------x-------x--|
|-----------------|-------------------|
|--x-------x------|---x--------x------|
|-----------------|-------------------|
|-----------------|-------------------|
|-----------------|-------------------|
|
|  Q   Q   Q   Q     +Q    Q   Q   Q
|-------------15--|-(15)--13--12--13--|
|---------15------|-------------------|
|-----14----------|-------------------|
|-12--------------|-------------------|
|-----------------|------------8------|
|--8--------------|--(8)--------------|
   W                 +H        Q   Q


  (E)        Eb5         N.C.
  Q   Q   Q   Q      Q     Q     Q     Q
|-----x-------x--|---------x-----------x----||
|----------------|-------------------------o||
|-x-------x------|---x-----------x----------||
|----------------|--------------------------||
|----------------|-------------------------o||
|----------------|--------------------------||
|
| Q   Q   Q   Q     +Q     Q     Q     Q
|------------18--|-(18)---20----18----17----||
|----10--11--17--|-(17)--(17)--(17)--(17)--o||
|-9--------------|--------------------------||
|----------------|--------------------------||
|-7--------------|--(7)--------------------o||
|----------------|--------------------------||
  W                 +W


  2.
  (Dsus4)                               N.C.
   Q   Q   Q   Q      Q    Q   Q   Q     W            W
|------x-------x--|--------x-------x--|-------------|------||
|-----------------|-------------------|-------------|------||
|--x-------x------|---x--------x------|-------------|------||
|-----------------|-------------------|-------------|------||
|-----------------|-------------------|-------------|------||
|-----------------|-------------------|-------------|------||
|
|  Q   Q   Q   Q     +Q    Q   Q   Q     Q  H.        W
|-------------15--|-(15)--13--12--13--|-18----------|------||
|---------15------|-------------------|-17----------|------||
|-----14----------|-------------------|-15----------|------||
|-12--------------|-------------------|-14----------|------||
|-----------------|-------------------|-------------|------||
|-12--------------|-(12)--------------|-------------|------||
   W                 +W


 "May it be the last of our.."
  F                         Em
 2/2
  Gtr VI
   W            W            W            W
|------------|------------|------------|--------|
|-10---------|-10---------|--8---------|--8-----|
|-10---------|-10---------|--9---------|--9-----|
|-(7)--------|-(7)--------|-(5)--------|-(5)----|
|-(8)--------|-(8)--------|-(7)--------|-(7)----|
|------------|------------|------------|--------|


  Dm                        C
   W            W            W           +W
|------------|------------|------------|--------|
|--6---------|--6---------|--5---------|-(5)----|
|--7---------|--7---------|--5---------|-(5)----|
|-(3)--------|-(3)--------|-(2)--------|-(2)----|
|-(5)--------|-(5)--------|-(3)--------|-(3)----|
|------------|------------|------------|--------|


  C            Dm
  +W            W           +W             +W      4x
|------------|-(5)--------|-(5)--------||--(5)-----||
|-(5)--------|--6---------|-(6)--------||o-(6)----o||
|-(5)--------|--7---------|-(7)--------||--(7)-----||
|-(2)--------|--3---------|-(3)--------||--(3)-----||
|-(3)--------|--5---------|-(5)--------||o-(5)----o||
|------------|------------|------------||----------||


Duration Legend
---------------
W - whole; H - half; Q - quarter; E - 8th; S - 16th; T - 32nd; X - 64th; a - acciaccatura
+ - note tied to previous; . - note dotted; .. - note double dotted
Uncapitalized letters represent notes that are staccato (1/2 duration)
Irregular groupings are notated above the duration line
Duration letters will always appear directly above the note/fret number it represents the
duration for.  Duration letters with no fret number below them represent rests.  Multi-
bar rests are notated in the form Wxn, where n is the number of bars to rest for.  Low
melody durations appear below the staff

Tablature Legend
----------------
 h   - hammer-on
 p   - pull-off
 b   - bend
 pb  - pre-bend
 r   - bend release (if no number after the r, then release immediately)
 /\  - slide into or out of (from/to "nowhere")
 s   - legato slide
 S   - shift slide
  - natural harmonic
[n]  - artificial harmonic
n(n) - tapped harmonic
 ~   - vibrato
 tr  - trill
 T   - tap
 TP  - trem. picking
 PM  - palm muting
\n/  - tremolo bar dip; n = amount to dip
 \n  - tremolo bar down
 n/  - tremolo bar up
/n\  - tremolo bar inverted dip
 =   - hold bend; also acts as connecting device for hammers/pulls
 <>  - volume swell (louder/softer)
 x   - on rhythm slash represents muted slash
 o   - on rhythm slash represents single note slash

Misc Legend
-----------
 |  - bar
||  - double bar
||o - repeat start
o|| - repeat end
*|  - double bar (ending)
 :  - bar (freetime)
 $  - Segno
 &  - Coda
Tempo markers -  = BPM(8/16=s8/s16), where s8 = swing 8ths, s16 = swing 16ths


***************************************************************************************
* Generated using Power Tab Editor by Brad Larsen - http://powertab.guitarnetwork.org *
***************************************************************************************
Tap to rate this tab
# A B C D E F G H I J K L M N O P Q R S T U V W X Y Z