Song name
# A B C D E F G H I J K L M N O P Q R S T U V W X Y Z

Chiodos - Theres No Penguins In Alaska tab

Help us improve GuitareTab! Take a short survey!
First of all this is the lead guitar (with the solo) played by Jason Hale only. So if u 
looking for rhythm it's not here. So yeah here it is.

***I recommend u listen to the song while u learn it, so you can figure out the rhythms.

Tabbed by: RedOriole08
Email:Ibanez061@aol.com
Tuning: Dropped D

INTRO
e|-------------------------------------------------------------------------|
B|-------------------------------------------------------------------------|
G|-14-14-14-14-14-14-14-14-14-14-12-10-10-10-10-10-12-12-12-12-------------|
D|-------------------------------------------------------------------------|
A|-12-12-12-12-12-12-12-12-12-12-10-8--8--8--8--8--10-10-10-10-------------|
E|-------------------------------------------------------------------------|


VERSE (Play ALL 1st time; Stop at gap 2nd time)
e|-------------------------------------------------------------------------|
B|-------------------------------------------------------------------------|
G|-10-10-10-10-10-10-10-10-10-10/12-14-14-14-14-14/15-12-12-12-12-12/14-14-|
D|-------------------------------------------------------------------------|
A|--8--8--8--8--8--8--8--8--8--8/10-12-12-12-12-12-13-10-10-10-10-10/12-12-|
E|-------------------------------------------------------------------------|

e|-------------------------------------------------------------------------|
B|-------------------------------------------------------------------------|
G|-10-10-10-9-9-9-12-12-12-9/10------------7-7-7-7-7-9-9-9-9-9-------------|
D|-------------------------------------------------------------------------|
A|--8--8--8-7-7-7-10-10-10-7/8-------------5-5-5-5-5-7-7-7-7-7-------------|
E|-------------------------------------------------------------------------|

Interlude
e|-------------------------------------------------------------------------|
B|--------------17-17-------------------17-17------------------------------|
G|--------17-17-------17-17-------17-17-------17-17------------------------|
D|-------------------------------------------------------------------------|
A|--15-15-------------------15-15------------------------------------------|
E|-------------------------------------------------------------------------|
 PM................................................

VERSE (continued) [Play 3x]
e|-------------------------------------------------------------------------|
B|o------------------------------------------------------------------------|
G|--------10-10/14-12-12-12-12-12-12---------------------------------------|
D|----0-0------------------------------------------------------------------|
A|o---0-0--8--8/12-10-10-10-10-10-10---------------------------------------|
E|----0-0------------------------------------------------------------------|

e|-------------------------------------------------------------------------|
B|---------------13-13-------------------13-13----------------------------o|
G|---------14-14-------14-14-------14-14-------14-14-----------------------|
D|---12-12-------------------12-12-----------------------------------------|
A|------------------------------------------------------------------------o|
E|-------------------------------------------------------------------------|
PM  ................................................

e|-------------------------------------------------------------------------|
B|-------------------------------------------------------------------------|
G|-----10-10/14-12-12-12-12-12-12------------------------------------------|
D|-0-0---------------------------------------------------------------------|
A|-0-0--8--8/12-10-10-10-10-10-10------------------------------------------|
E|-0-0---------------------------------------------------------------------|

e|-------------------------------------------------------------------------|
B|--------------17-17-------------------17-17------------------------------|
G|--------17-17-------17-17-------17-17-------17-17------------------------|
D|-------------------------------------------------------------------------|
A|--15-15-------------------15-15------------------------------------------|
E|-------------------------------------------------------------------------|
 PM................................................

 (SLOW PART)
e|-------------------------------------------------------------------------|
B|-------------------------------------------------------------------------|
G|-------------------------------------------------------------------------|
D|-8---------0---------8---------0-----------------------------------------|
A|-8---------0---------8---------0-----------------------------------------|
E|-8---------0---------8---------0-----------------------------------------|

 (PRE-SOLO)[Play 2x]
e|-------------------------------------------------------------------------|
B|-------------------------------------------------------------------------|
G|-14-14-14-14-14-14-14-14-14-14-14-14-14-14-14-14-14-14-14-14-14-14-14-14-|
D|-------------------------------------------------------------------------|
A|-12-12-12-12-12-12-12-12-12-12-12-12-12-12-12-12-12-12-12-12-12-12-12-12-|
E|-------------------------------------------------------------------------|

e|-------------------------------------------------------------------------|
B|-------------------------------------------------------------------------|
G|-10-10-10-10-10-10-10-10-10-10-10-10-10-10-10-10-10-10-10-10-10-10-10-10-|
D|-------------------------------------------------------------------------|
A|--8--8--8--8--8--8--8--8--8--8--8--8--8--8--8--8--8--8--8--8--8--8--8--8-|
E|-------------------------------------------------------------------------|

(SOLO)                                                   [Play this part 4x]
e|-12-13-12----15-13-12-13-12----15-13-12-13-12----------------------------|
B|----------13----------------13----------------13-------------------------|
G|-------------------------------------------------------------------------|
D|-------------------------------------------------------------------------|
A|-------------------------------------------------------------------------|
E|-------------------------------------------------------------------------|

 (SOLO continued)                                        [Play this part 3x]
e|-15-17-15----18-17-15-17-15----18-17-15-17-15----------------------------|
B|----------17----------------17----------------17-------------------------|
G|-------------------------------------------------------------------------|
D|-------------------------------------------------------------------------|
A|-------------------------------------------------------------------------|
E|-------------------------------------------------------------------------|

 (End SOLO w/)
e|-15-17-15----18-17-15----------------------------------------------------|
B|----------17----------17-------------------------------------------------|
G|-------------------------------------------------------------------------|
D|-------------------------------------------------------------------------|
A|-------------------------------------------------------------------------|
E|-------------------------------------------------------------------------|

(Post Solo)[wait 2 measures]
e|-------------------------------------------------------------------------|
B|-------------------------------------------------------------------------|
G|-------------------------------------------------------------------------|
D|-00----------------------------------------------------------------------|
A|-00-5---3---5---8---7---5h7p5-----8---7h8----7-10------------------------|
E|-00---0---0---0---0---0--------88---8-----10-----------------|
PM...

e|-------------------------------------------------------------------------|
B|-------------------------------------------------------------------------|
G|-------------------------------------------------------------------------|
D|-00----------------------------------------------------------------------|
A|-00-5---3---5---8---7---5h7p5-8-8-8-8-8-8-8-3-3-5------------------------|
E|-00---0---0---0---0---0--------------------------------------------------|
PM...

          ***[The last 10 on the A string is a Pinch Harmonic]***(BELOW)***
e|-------------------------------------------------------------------------|
B|-------------------------------------------------------------------------|
G|-------------------------------------------------------------------------|
D|-00-------------------------------------------10-10-10-------------------|
A|-00-5---3---5---8---7---5h7p5----00000-7h8p7--10-10-10-[10]--------------|
E|-00---0---0---0---0---0------------88---------10-10-10-------------------|
PM ..                                            .  .  .

(Play 3x)
e|-------------------------------------------------------------------------|
B|-------------------------------------------------------------------------|
G|-------------------------------------------------------------------------|
D|12p0-12p0-10p0-15p0-14p0-12h14p12p0--12p0-15p0-14h15--14p0-17p0-15h17----|
A|-----------------------------------13---------------15-------------------|
E|-------------------------------------------------------------------------|


NOW...
e|-------------------------------------------------------------------------|
B|-------------------------------------------------------------------------|
G|-------------------------------------------------------------------------|
D|12p0-12p0-10p0-15p0-14p0-12h14p12p0--12p0-15p0-14h15-888-----------------|
A|-----------------------------------13----------------888-----------------|
E|-----------------------------------------------------888-----------------|
PM                                                     ...

e|-------------------------------------------------------------------------|
B|-------------------------------------------------------------------------|
G|--------10-10/14-12-12-12-12-12-12---------------------------------------|
D|----0-0------------------------------------------------------------------|
A|----0-0--8--8/12-10-10-10-10-10-10---------------------------------------|
E|----0-0------------------------------------------------------------------|
 PM  ...

e|-------------------------------------------------------------------------|
B|---------------13-13-------------------13-13-----------------------------|
G|---------14-14-------14-14-------14-14-------14-14-----------------------|
D|---12-12-------------------12-12-----------------------------------------|
A|-------------------------------------------------------------------------|
E|-------------------------------------------------------------------------|
PM  ................................................

                                     |-3-|
e|-------------------------------------------------------------------------|
B|-------------------------------------------------------------------------|
G|-----10-10/14-12-12-12-12-12-12------------------------------------------|
D|-0-0----------------------------00--000--00-00---------------------------|
A|-0-0--8--8/12-10-10-10-10-10-10-00--000--00-00---------------------------|
E|-0-0----------------------------00--000--00-00---------------------------|
PM....                            ..............

e|-------------------------------------------------------------------------|
B|-------------------------------------------------------------------------|
G|--------10-10/14-12-12-12-12-12-12---------------------------------------|
D|----0-0------------------------------------------------------------------|
A|----0-0--8--8/12-10-10-10-10-10-10---------------------------------------|
E|----0-0------------------------------------------------------------------|
 PM  ...

e|-------------------------------------------------------------------------|
B|---------------13-13-------------------13-13-----------------------------|
G|---------14-14-------14-14-------14-14-------14-14-----------------------|
D|---12-12-------------------12-12-----------------------------------------|
A|-------------------------------------------------------------------------|
E|-------------------------------------------------------------------------|
PM  ................................................

                                     |-3-|
e|-------------------------------------------------------------------------|
B|-------------------------------------------------------------------------|
G|-----10-10/14-12-12-12-12-12-12------------------------------------------|
D|-0-0----------------------------00--000--00-00---------------------------|
A|-0-0--8--8/12-10-10-10-10-10-10-00--000--00-00---------------------------|
E|-0-0----------------------------00--000--00-00---------------------------|
PM....                            ..............

                                     |---3-----------------------------------|
e|---------------------------------------------------------------------------|
B|-----------------4--4-----------------------------4--4---------------------|
G|-----------------7--7-----------------------------7--7---------------------|
D|-0----------------------------0-0--000--000--0-0---------------------------|
A|-0----------------------------0-0--000--000--0-0---------------------------|
E|-0----------------------------0-0--000--000--0-0---------------------------|
PM                              ..................

        |---3---|                |---3---------------------------------------|
e|---------------------------------------------------------------------------|
B|---------------------4--4--------------------------------------------------|
G|---------------------7--7--------------------------------------------------|
D|-0-0--000--000--0-0--------0-0--000--000--0--------------------------------|
A|-0-0--000--000--0-0--------0-0--000--000--0--------------------------------|
E|-0-0--000--000--0-0--------0-0--000--000--0--------------------------------|
PM...................        .................


e|-------------------------------------------------------------------------|
B|-----4--4---4--4----4--4-----4--4----4--4---4--4-------------------------|
G|-----7--7---7--7----7--7-----7--7----7--7---7--7-------------------------|
D|-00-------0-------0-------00-------0------0------------------------------|
A|-00-------0-------0-------00-------0------0------------------------------|
E|-00-------0-------0-------00-------0------0------------------------------|
PM...       .       .       ..       .      .


e|-------------------------------------------------------------------------|
B|-----4--4---4--4----4--4-----4--4----4--4---4--4-------------------------|
G|-----7--7---7--7----7--7-----7--7----7--7---7--7-------------------------|
D|-00-------0-------0-------00-------0------0------------------------------|
A|-00-------0-------0-------00-------0------0------------------------------|
E|-00-------0-------0-------00-------0------0------------------------------|
PM...       .       .       ..       .      .


(***THESE 5's BELOW ARE OPTIONAL, THEYRE JUST A WAY TO PLAY A DUB-OVER***)
e|-----5--5---5--5----5--5-----5--5----5--5---5555-------------------------|
B|-----6--6---6--6----6--6-----6--6----6--6---6666-------------------------|
G|-----9--9---9--9----9--9-----9--9----9--9---9999-------------------------|
D|-00-------0-------0-------00-------0------0------------------------------|
A|-00-------0-------0-------00-------0------0------------------------------|
E|-00-------0-------0-------00-------0------0------------------------------|
   ..       .       .       ..       .      .


e|-----5--5---5--5----5--5-----5--5----5--5---5555-------------------------|
B|-----6--6---6--6----6--6-----6--6----6--6---6666-------------------------|
G|-----7--7---7--7----7--7-----7--7----7--7---7777-------------------------|
D|-00-------0-------0-------00-------0------0------------------------------|
A|-00-------0-------0-------00-------0------0------------------------------|
E|-00-------0-------0-------00-------0------0------------------------------|
   ..       .       .       ..       .      .


e|-----5--5---5--5----5--5-----5--5----5--5---5555-------------------------|
B|-----6--6---6--6----6--6-----6--6----6--6---6666-------------------------|
G|-----9--9---9--9----9--9-----9--9----9--9---9999-------------------------|
D|-00-------0-------0-------00-------0------0------------------------------|
A|-00-------0-------0-------00-------0------0------------------------------|
E|-00-------0-------0-------00-------0------0------------------------------|
   ..       .       .       ..       .      .


e|-----5--5---5--5----5--5-----5--5----5-----------------------------------|
B|-----6--6---6--6----6--6-----6--6----6--------6~-------------------------|
G|-----7--7---7--7----7--7-----7--7----7-----9~----9~----------------------|
D|-00-------0-------0-------00-------0-------------------------------------|
A|-00-------0-------0-------00-------0-------------------------------------|
E|-00-------0-------0-------00-------0-------------------------------------|
   ..       .       .       ..       .


(PRE-SOLO)[Play 2x]
e|-------------------------------------------------------------------------|
B|-------------------------------------------------------------------------|
G|-14-14-14-14-14-14-14-14-14-14-14-14-14-14-14-14-14-14-14-14-14-14-14-14-|
D|-------------------------------------------------------------------------|
A|-12-12-12-12-12-12-12-12-12-12-12-12-12-12-12-12-12-12-12-12-12-12-12-12-|
E|-------------------------------------------------------------------------|


e|-------------------------------------------------------------------------|
B|-------------------------------------------------------------------------|
G|-10-10-10-10-10-10-10-10-10-10-10-10-10-10-10-10-10-10-10-10-10-10-10-10-|
D|-------------------------------------------------------------------------|
A|--8--8--8--8--8--8--8--8--8--8--8--8--8--8--8--8--8--8--8--8--8--8--8--8-|
E|-------------------------------------------------------------------------|


(PRE-SOLO)
e|-------------------------------------------------------------------------|
B|-------------------------------------------------------------------------|
G|-14-14-14-14-14-14-14-14-14-14-14-14-14-14-14-14-14-14-14-14-14-14-14-14-|
D|-------------------------------------------------------------------------|
A|-12-12-12-12-12-12-12-12-12-12-12-12-12-12-12-12-12-12-12-12-12-12-12-12-|
E|-------------------------------------------------------------------------|


e|-------------------------------------------------------------------------|
B|-------------------------------------------------------------------------|
G|-10-10-10-10-10-10-10-10-10-10-10-10-10-10-10-10-10-10-10-10-10-10-10-10-|
D|-------------------------------------------------------------------------|
A|--8--8--8--8--8--8--8--8--8--8--8--8--8--8--8--8--8--8--8--8--8--8--8--8-|
E|-------------------------------------------------------------------------|

e|-------------------------------------------------------------------------|
B|-------------------------------------------------------------------------|
G|-14-14-14-14-14-14-14-14-14-14-14-14-14-14-14-14-14-14-14-14-14-14-14-14-|
D|-------------------------------------------------------------------------|
A|-12-12-12-12-12-12-12-12-12-12-12-12-12-12-12-12-12-12-12-12-12-12-12-12-|
E|-------------------------------------------------------------------------|


e|-------------------------------------------------------------------------|
B|-------------------------------------------------------------------------|
G|-10-10-10-10-10-10-10-10-10-10-10-10-------------------------------------|
D|-------------------------------------------------------------------------|
A|--8--8--8--8--8--8--8--8--8--8--8--8-------------------------------------|
E|-------------------------------------------------------------------------|


(FAST RIFF)
e|-----------------------------------------12-12-12------------------------|
B|--------------------------------------13---------------------------------|
G|-----------------------------12-14-15------------------------------------|
D|--------------------12-14-15---------------------------------------------|
A|-----------12-13-15------------------------------------------------------|
E|--12-14-15---------------------------------------------------------------|

(SOLO)                                                   [Play this part 4x]
e|-12-13-12----15-13-12-13-12----15-13-12-13-12----------------------------|
B|----------13----------------13----------------13-------------------------|
G|-------------------------------------------------------------------------|
D|-------------------------------------------------------------------------|
A|-------------------------------------------------------------------------|
E|-------------------------------------------------------------------------|

 (SOLO continued)                                        [Play this part 3x]
e|-15-17-15----18-17-15-17-15----18-17-15-17-15----------------------------|
B|----------17----------------17----------------17-------------------------|
G|-------------------------------------------------------------------------|
D|-------------------------------------------------------------------------|
A|-------------------------------------------------------------------------|
E|-------------------------------------------------------------------------|

 (End SOLO w/)
e|-15-17-15----18-17-15----------------------------------------------------|
B|----------17----------17-------------------------------------------------|
G|-------------------------------------------------------------------------|
D|-------------------------------------------------------------------------|
A|-------------------------------------------------------------------------|
E|-------------------------------------------------------------------------|


(BREAKDOWN)
e|-------------------------------------------------------------------------|
B|-------------------------------------------------------------------------|
G|--7-6-8-7-9-8-7-8--7-6-8-7-9-8-7-8--7-6-8-7-9-8-7-8--7-6-8-7-9-8-7-8-----|
D|-------------------------------------------------------------------------|
A|-------------------------------------------------------------------------|
E|-------------------------------------------------------------------------|

e|-------------------------------------------------------------------------|
B|-------------------------------------------------------------------------|
G|-------------------------------------------------------------------------|
D|----------------------------------00-00----------------------------------|
A|-5p0h5p0h3p0h5p0h8p0h7p0h5h7p5p0--00-00----------------------------------|
E|----------------------------------00-00----------------------------------|
                                    .. ..

e|-------------------------------------------------------------------------|
B|-------------------------------------------------------------------------|
G|-------------------------------------------------------------------------|
D|----------------------------------00-00----------------------------------|
A|-5p0h5p0h3p0h5p0h8p0h7p0h5h7p5p0--00-00----------------------------------|
E|----------------------------------00-00----------------------------------|
                                    .. ..

e|-------------------------------------------------------------------------|
B|-------------------------------------------------------------------------|
G|-------------------------------------------------------------------------|
D|-------------------------------------------------------------------------|
A|-5p0h5p0h3p0h5p0h8p0h7p0h5h7p5p0h1p0h5p0h8p0h7h8-3p0h7p0h10p0h8h10-------|
E|-------------------------------------------------------------------------|

e|-------------------------------------------------------------------------|
B|-------------------------------------------------------------------------|
G|-------------------------------------------------------------------------|
D|----------------------------------00-00----------------------------------|
A|-5p0h5p0h3p0h5p0h8p0h7p0h5h7p5p0--00-00----------------------------------|
E|----------------------------------00-00----------------------------------|
                                    .. ..

                               [({THE END})]

| /  slide up
| \  slide down
| h  hammer-on
| p  pull-off
| ~  vibrato
| +  harmonic
| .  Mute note (BELOW the staff)
|[#] Pinch Harmonic
============================================================================
Related for Theres No Penguins In Alaska tab