Song name
# A B C D E F G H I J K L M N O P Q R S T U V W X Y Z

Chiodos - The Words Best Friends Becomes Redefined tab

-------------------------------------------------------------------------------
			The words "best friends" becomes redefined - chiodos
-------------------------------------------------------------------------------
Tabbed by:Dave
Email:emorockr91@yahoo.com

Tuning:

e|---------------------------------------------------------------------------|
B|---------------------------------------------------------------------------|
G|---------------------------------------------------------------------------|
D|--------7-5-5-3-3----------------------------------------------------------|
A|--5-5-5-----------7-7-7-8-T4h5p4h5p4h5p4h5p4h5p4h5p4h5p4h5p4---------------|
D|---0-0-0-0-0-0-0-0-0-0-0---------------------------------------------------|
     . . . . . . . . . . .

e|---------------------------------------------------------------------------|
B|---------------------------------------------------------------------------|
G|---------------------------------------------------------------------------|
D|--------7-5-5-3-3-555-7-88-77----------------------------------------------|
A|--5-5-5--------------------------------------------------------------------|
D|---0-0-0-0-0-0-0-----------------------------------------------------------|
     . . . . . . . 




Repeat those a bunch of times until the soft part comes...


T-Tap
H-Hammer On
P-pull off
.-p.m.


im pretty sure this is around 100% correct
Tap to rate this tab
 
# A B C D E F G H I J K L M N O P Q R S T U V W X Y Z