Song name
# A B C D E F G H I J K L M N O P Q R S T U V W X Y Z

Chiodos - No Hardcore Dancing In The Livingroom tab

e----------------------------------------|
B----------------------------------------|
G----------------------------------------|
D----------------------------------------|
A-8--7--5--8--7-5-7--10--8--7--10--8-7h8-|
D--00-00-00-00-0-------00-00-00--00-0----|
                                      
e----------------------------------------|
B----------------------------------------|
G----------------------------------------|
D----------------------------------------|  2 times
A-8--7--3--8--7-5-7--10--8--7--10--8-7h8-|
D--00-00-00-00-0-------00-00-00--00-0----|
 
e-------------------------------------------|
B-------------------------------------------|
G-------------------------------------------|
D-------------------------------------------|
A-8--7--3--8--7-5-7--10--8--7--10--12-10h12-|
D--00-00-00-00-0-------00-00-00--00--0------|
 
e---------------------------------------|
B---------------------------------------|
G---------------------------------------|
D---------------------------------------|
A-8--7--3--8--7-5-7--10--8--7--5--5-4h5-|
D--00-00-00-00-0-------00-00-00-00-0----|
 
e---------------------------------------------|
B---------------------------------------------|
G-10--9--7--10--9-7-9--12--10--9--12--10-9-10-|
D---00-00-00--00-0-------00--00-00--00--0-----|
A---------------------------------------------|
D---------------------------------------------|
 
e------------------------------------------|
B------------------------------------------|
G-10--9--7--10--9-7-9--12--10--9--7--7-6h7-|
D---00-00-00--00-0-------00--00-00-00-0----|
A------------------------------------------|
D------------------------------------------|
 
e--------------------------------------------------------------------|
B--------------------------------------------------------------------|
G-101010-999-777-101010-99-7-9--121212-101010-999-121212-14-12-10-12-|
D-xxxxxx-xxx-xxx-xxxxxx-xx-x-x--xxxxxx-xxxxxx-xxx-xxxxxx-xx-xx-xx-xx-|
A-8-8-8--777-555-8-8-8--77-5-7--101010-8-8-8--777-101010-12-10-8--10-|
D--------------------------------------------------------------------|

e-----------------------------------------------------------|
B-----------------------------------------------------------|
G-101010-999-777-101010-99-7-9--121212-101010-999-77777-6-7-|
D-xxxxxx-xxx-xxx-xxxxxx-xx-x-x--xxxxxx-xxxxxx-xxx-xxxxx-x-x-|
A-8-8-8--777-555-8-8-8--77-5-7--101010-8-8-8--777-55555-4-5-|
D-----------------------------------------------------------|

alright then we go into a hardcore breakdown

e-----------------------------------------------------|
B-----------------------------------------------------|
G----10-----------10--------10------12--------14------|
D-00---8-7-8--000---7-0--00---8-7-8---10-9-10---13-12-|
A-00----------000--------00---------------------------|
D-00----------000--------00---------------------------|

repeat that a few times then...

e--------------------10----------------10h11-10h11-10h11-10-|
B----11-10-9h10-------------11-10-9h10----------------------|
G-----------------------------------------------------------|
D-00-------------000-----00---------------------------------| 2 times
A-00-------------000-----00---------------------------------|
D-00-------------000-----00---------------------------------|

ummmm i dont know this part sooo...heres the part right after he says "at the same moon"

e-----------------------------------------------|
B-----------------------------------------------|
G--10-9h10-7----10-9h10-9-7---9---9-----9---9---|
D----0------------0------------0-7-7-----0-7-7--|
A-----------------------------------------------|
D-0----------00-------------7--------77-------7-|

"and baby this wont get any easier"

e--------------------------|
B---6-----6-6----5-----5-5-|
G---7-----7-7----6-----6-6-|
D-0---000------0---000-----|
A-0---000------0---000-----|
D-0---000------0---000-----|

repeat that for awhile then...

e------------------------------|
B-101010101010101010101010-----|
G-111111111111111111111111-----|
D------------------------------|
A------------------------------|
D---------------------------77-|

e-----------------------------------------|
B-----------------------------------------|
G--------------9999-----------------------|
D-101010101010-7777--88-77-88-77-101010-5-|
A-8-8-8-8-8-8--------88-77-88-77-101010-5-|
D--------------------88-77-88-77-101010-5-|

"dont let this go"

e-----------------------------------------------------------|
B-----------------------------------------------------------|
G-----------------------------------------------------------| 3 times
D-------------------------3-3-3-7-55-3/5\3-33333-7-55-3-3/5-|
A-3-3-77-7-000000-333333--1-1-1-5-33-1/3\1-11111-5-33-1-1/3-|
D-3-3-77-7-000000-333333------------------------------------|

on the last one of those ^ do this

e------------------------0-|
B------------------------0-|
G------------------------0-|
D------------------------0-|
A-3-3-77-7-000000-333333-0-|
D-3-3-77-7-000000-333333-0-|

play the open everything chord some more then....

e----------------------------------------55---55---5-|
B-66---66---6--55---55---5--55---55---5--xx---xx---x-|
G-xx---xx---x--55---55---5--xx---xx---x--xx---xx---x-|
D-77-0-77-0-7-----0----0----55-0-55-0-5--66-0-66-0-6-|
A----0----0-------0----0-------0----0-------0----0---|
D----0----0-------0----0-------0----0-------0----0---|

repeat that some then..

e-55-5-----5-5-----5-5-----5-55-4444-4/5-|
B-xx-x-----x-x-----x-x-----x-xx-xxxx-xxx-|
G-xx-x-----x-x-----x-x-----x-xx-xxxx-xxx-|
D-66-6-000-6-6-000-6-6-000-6-66-5555-5/6-|
A------000-----000-----000---------------|
D------000-----000-----000---------------|

repeat that however many times on the last time hold it the slide down and thats it
yay!
Tap to rate this tab
 
# A B C D E F G H I J K L M N O P Q R S T U V W X Y Z