Song name
# A B C D E F G H I J K L M N O P Q R S T U V W X Y Z

Chiodos - No Hardcore Dancing In The Living Room tab

Help us improve GuitareTab! Take a short survey!
"NO HARDCORE DANCING IN THE LIVING ROOM"


intro:
|----------------------------------------------------|
|----------------------------------------------------|
|----10----------10-------10------12---------14------|
|-00---8-7-8-000---7-0-00---8-7-8---11-10-11---13-12-|x4
|-00---------000-------00----------------------------|
|-00---------000-------00----------------------------|


|--------------------------------------1111--111111--11-|
|----11-10-8h10-----11p10----11-10-8h10----10------10---|
|-------------------------------------------------------|
|-00------------000-------00----------------------------|x2
|-00------------000-------00----------------------------|
|-00------------000-------00----------------------------|


|----------------------------------------------------------------------|
|----6666-----5555----6666-----2222----6666-----55555----6666-----2222-|
|----7777-----6666----7777-----0000----7777-----66666----7777-----0000-|
|-00------000------00------000------00------000-------00------000------|x2
|-00------000------00------000------00------000-------00------000------|
|-00------000------00------000------00------000-------00------000------|


|-------------------------------------------------------|
|-------------------------------------------------------|
|----10--9-10------10--9-10-----9---9-9-----9---9-9-----|
|--12--12----12------12----12----11----11----11----11---|x4
|----------------------------12----------12----------12-|
|-0-------------0-0-------------------------------------|


|-----5------5-5-----3----3-3-3-5/-----5------5-5-----3----3-3-6-3-5-|
|-----6------6-6-----5-----5-5---------6------6-6-----5-----3-3------|
|-----7------7-7-----6-----------------7------7-7-----6--------------|
|-0-0---00-0-----0-0---00----------0-0---00-0-----0-0---00-----------|
|-0-0---00-0-----0-0---00----------0-0---00-0-----0-0---00-----------|
|-0-0---00-0-----0-0---00----------0-0---00-0-----0-0---00-----------|


|-5--5--5--5--5--5--6--6--6--6--6--6--5--5--8--8--6--6--5--5--8--8--6--6--|
|--6--6--6--6--6--6--6--6--6--6--6--6--6--6-----6--6--6--6--6-----6--6--6-|
|---7--7-----7--7-----7--7-----7--7-----7--7--7--7--7-----7--7--7--7--7---|
|-------------------------------------------------------------------------|
|-------------------------------------------------------------------------|
|-------------------------------------------------------------------------|


|-6666666666666-|----------|
|-7777777777777-|----------|
|-9999999999999-|----------|
|---00000000000-|----------|
|----0000000000-|-5-5-N.H.-|
|------00000000-|-7-7-N.H.-|


|-------------------------------------------------------------------------------------------|
|-------------------------------------------------------------------------------------------|
|-1010-10101010-14-14-141414----------------9/1010-10101010-14-14-141414------------------9-|
|--x-x--x-x-x-x--x--x--x-x-x-88-77-88-77-10-x--x-x--x-x-x-x--x--x--x-x-x-88-77-88-77-1010-x-|
|--8-8--8-8-8-8-12-12-121212-88-77-88-77-10-7/-8-8--8-8-8-8-12-12-121212-88-77-88-77-1010-7-|
|----------------------------88-77-88-77-10------------------------------88-77-88-77-1010---|


|------------------------------------------------------------------------------|
|------------------------------------------------------------------------------|
|-10-10-1010-14-14-141414------------------------------------------------------|
|--x--x--x-x--x--x--x-x-x-00-0000-33-3333--------------------------------------|x2
|--8--8--8-8-14-12-121212-00-0000-33-3333-88-1010-0-8h10p8--88-1010-0-10h12p10-|
|-------------------------00-0000-33-3333-88-1010-0-8h10p8--88-1010-0-10h12p10-|


|-----------------------------------------0~---0~-|
|-----------------------------------------0~---0~-|
|-10-10-1010-14-14-141414-----------------0~---0~-|
|--x--x--x-x--x--x--x-x-x-00-0000-33-3333-0~---0~-|
|--8--8--8-8-12-12-121212-00-0000-33-3333-0~---0~-|
|-------------------------00-0000-33-3333---------|


|------------------------------------------------------------------------|
|------------------------------------------------------------99---99---9-|
|---1010---1010---10----9-9----9-9----9----9-9----9-9----9---77---77---7-|
|-0--7-7-0--7-7-0--7-0-1010-0-1010-0-10-0-1010-0-1010-0-10-0----0----0---|x5
|-0--8-8-0--8-8-0--8-0--7-7-0--7-7-0--7-0--7-7-0--7-7-0--7-0----0----0---|
|-0------0------0----0------0------0----0------0------0----0----0----0---|


|------------------------------------------------------------------|------|
|-99-----99-----99-----999(999)-99-----99-----99-----999(999)------|-9^~/-|
|-77-----77-----77-----777(777)-77-----77-----77-----777(777)------|-7^~/-|
|----000----000----000-------------000----000----000----------(x3)-|------|
|----000----000----000-------------000----000----000---------------|------|
|----000----000----000-------------000----000----000---------------|------|


key:

~    vibrato
.    palm mute
h    hammer-on
p    pull-off
x    muted note
^    bend up
/\   slide up/ down


brettw.
Related for No Hardcore Dancing In The Living Room tab