Song name
# A B C D E F G H I J K L M N O P Q R S T U V W X Y Z

Chiodos - One Day Women Will All Become Monsters tab

-------------------------------------------------------------------------------
	      One Day Women Will All Become Monsters by Chiodos
-------------------------------------------------------------------------------
Tabbed by:eflex21
Email: eefiala@yahoo.com

Tuning:drop d

okay, all the tabs of this song on here suck so although I dont have all of it, it is by 
the most correct version. enjoy!

Intro
e|------------------------------------------------------------------------------|
B|------------------------------------------------------------------------------|
G|------------------------------------------------------------------------------|
D|-77-77-99-99~-----------------------------------------------------------------|
A|-55-55-77-77~-----------------------------------------------------------------|
D|------------------------------------------------------------------------------|
Verse
e|---------------------------------------------------------------------------|
B|---------------------------------------------------------------------------|
G|---------------------------------------------------------------------------|
D|----7-5------7-5--------7-5------7-5-------77-77-99-99---------------------|
A|--5-----55-5------7~--5-----55-5-----7~----55-55-77-77---------------------|
D|--------..-.----------------..-.-------------------------------------------|

e|---------------------------------------------------------------------------|
B|---------------------------------------------------------------------------|
G|---------------------------------------------------------------------------|
D|-7~-----------------------------7~--5~-------------------------------------|
A|-5~-----------------------------5~--3~-------------------------------------|
D|---------------------------------------------------------------------------|
sorry dont know pre chorus hammer on stuff

chorus
e|---------------------------------------------------------------------------|
B|---------------------------------------------------------------------------|
G|---------------------------------------------------------------------------|
D|--33333-55555-77777-7-7-7-77--33333-55555-77777-7-7-7-77-------------------|
A|--11111-33333-55555-5-5-5-55--11111-33333-55555-5-5-5-55-------------------|
D|--------------------.---.-----------------------.---.----------------------|

e|---------------------------------------------------------------------------|
B|---------------------------------------------------------------------------|
G|---------------------------------------------------------------------------|
D|--33333-55555-77777-7-7-7-77--33333-55555-77777-7-7-7-77-------------------|
A|--11111-33333-55555-5-5-5-55--11111-33333-55555-5-5-5-55-------------------|
D|--------------------.---.-----------------------.---.----------------------|
interlude
e|---------------------------------------------------------------------------|
B|---------------------------------------------------------------------------|
G|---------------------------------------------------------------------------|
D|-77-33-10-55-55--77-33-10-55-55--77-33-10-55-55--77-33-10~-----------------|
A|-55-11-88-33-33--55-11-88-33-33--55-11-88-33-33--55-11-8~~-----------------|
D|-..-..-..-..-..--..-..-..-..-..--..-..-..-..-..---------------------------=|

e|---------------------------------------------------------------------------|
B|---------------------------------------------------------------------------|
G|---------------------------------------------------------------------------|
D|-77-33-10-55-55--77-33-10-55-55--77-77-99-99~------------------------------|
A|-55-11-88-33-33--55-11-88-33-33--55-55-77-77~------------------------------|
D|---------------------------------------------------------------------------|
  verse
e|---------------------------------------------------------------------------|
B|---------------------------------------------------------------------------|
G|---------------------------------------------------------------------------|
D|----7-5-------7-5------7-5-------7-5-----77-77-99-99~----------------------|
A|--5-----55-5------7~--5-----55-5-----7~--55-55-77-77~----------------------|
D|--------..-.----------------..-.-------------------------------------------|

e|---------------------------------------------------------------------------|
B|---------------------------------------------------------------------------|
G|---------------------------------------------------------------------------|
D|--7-77-7-777777-3-33-3-333333-2-22-2-222222-5-55-5-555555------------------|
A|--5-55-5-555555-1-11-1-111111-0-00-0-000000-3-33-3-333333------------------|
D|----..---..-.-----..---..-.-----..---..-.-----..---..-.--------------------|

e|---------------------------------------------------------------------------|
B|---------------------------------------------------------------------------|
G|---------------------------------------------------------------------------|
D|--7-77-7-777777-3-33-3-333333-2-22-2-222222-5-55-5-555555------------------|
A|--5-55-5-555555-1-11-1-111111-0-00-0-000000-3-33-3-333333------------------|
D|----..---..-.-----..---..-.-----..---..-.-----..---..-.--------------------|
 breakdown (palm muted)
e|---------------------------------------------------------------------------|
B|---------------------------------------------------------------------------|
G|---------------------------------------------------------------------------|
D|---------------------|----------------------|------------------------------|
A|--00000-00000-00000--|-00000-00000-00000-00-|-x4---------------------------|
D|--00000-00000-00000--|-00000-00000-00000-00-|------------------------------|
 interlude
 1st guitar
e|---------------------------------------------------------------------------|
B|---------------------------------------------------------------------------|
G|---------------------------------------------------------------------------|
D|-----------------------3\2/3-5-3-2~---x6-----------------------------------|
A|--0000-5\3/5-8-7-5/7\1-----------------------------------------------------|
D|--0000---------------------------------------------------------------------|
2nd guitar
e|---------------------------------------------------------------------------|
B|---------------------------------------------------------------------------|
G|---------------------------------------------------------------------------|
D|-----------------------3333-----------1ast-4-times-of-that^----------------|
A|--0000-----------------1111------------------------------------------------|
D|--0000---------------------------------------------------------------------|
then
e|---------------------------------------------------------------------------|
B|---------------------------------------------------------------------------|
G|---------------------------------------------------------------------------|
D|--77-77-99-99~-------------------------------------------------------------|
A|--55-55-77-77~-------------------------------------------------------------|
D|---------------------------------------------------------------------------|
outro
e|---------------------------------------------------------------------------|
B|---------------------------------------------------------------------------|
G|---------------------------------------------------------------------------|
D|--77-77-77-33-33-33-22-22-22-55-55-55---x4---------------------------------|
A|--55-55-55-11-11-11-00-00-00-33-33-33--------------------------------------|
D|---------------------------------------------------------------------------|
then
e|---------------------------------------------------------------------------|
B|---------------------------------------------------------------------------|
G|---------------------------------------------------------------------------|
D|-77-77-99~-----------------------------------------------------------------|
A|-55-55-77~-----------------------------------------------------------------|
D|---------------------------------------------------------------------------|


thats it. any questions, comments, concerns email eefiala@yahoo.com. thanks!
| /  slide up
| \  slide down
| h  hammer-on
| p  pull-off
| ~  vibrato
| +  harmonic
| x  Mute note
===============================================================================
Tap to rate this tab
# A B C D E F G H I J K L M N O P Q R S T U V W X Y Z