Guitaretab - guitar tabs
Song name
# A B C D E F G H I J K L M N O P Q R S T U V W X Y Z

Chiodos - Beautiful Blue Eyes tab

Beautiful Blue Eyes
By Chiodos
It may not all be correct but this is from what I hear. 
hopefully someone would come out with a better version later.

Standard Tuning.

Intro. (make sure DO THE INTRO TWICE)
Part 1.
|-----------------------------|
|-----------------------------|
|-----------------------------|
|6-6/7-7-7-7-7-7/11-11-9-9-9--|
|0-0-0-0-0-0-0-0-0--0--0-0-0--|
|-----------------------------|

Part 2.
|-----------------------------|
|-----------------------------|
|-----------------------------|
|6-6/7-7-7-7-7-7/4-4-2-2-2----|
|0-0-0-0-0-0-0-0-0-0-0-0-0----|
|-----------------------------|

(End intro)

Verse. 

(repeat verse 4 times)
|xxx-----x-------xxx-----xxx-------------|
|xxx-----xxx-----xxx-----xxx-------------|
|xxx-----xxx-----xxx-----xxx-------------|
|xxx-7-7-xxx-----xxx-----xxx-------------|
|xxx-5-5-xxx-9-9-xxx-4-4-xxx-5-5-5-5-5---|
|xxx-----xxx-7-7-xxx-2-2-xxx-3-3-3-3-3---|

Chorus.

Part 1
(Repeat 4 times)
|------------------------------------------------------------------|
|------------------------------------------------------------------|
|7-7-7-7-7-7-7-7---------------------------------------------------|
|7-7-7-7-7-7-7-7-9-9-9-9-9-9-9-9-4-4-4-4-4-4-4-4-4-5-5-5-5-5-5-5---|
|5-5-5-5-5-5-5-5-9-9-9-9-9-9-9-9-4-4-4-4-4-4-4-4-5-5-5-5-5-5-5-5---|
|----------------7-7-7-7-7-7-7-7-2-2-2-2-2-2-2-2-3-3-3-3-3-3-3-3---|


Part 2
(Repeat 2 times)
|--------------------------------------------------------------------------|
|--------------------------------------------------------------------------|
|--------------------------------------------------------------------------|
|7-------------------------------------------------7-7-7-6-6-6-6-7-7-7-7-7-|
|5-9-9-9-9-9-9-9-9-7-7-7-7-7-7-7-4/5-5-5-5-5-5-5-5-5-5-5-4-4-4-4-5-5-5-5-5-|
|--7-7-7-7-7-7-7-7-5-5-5-5-5-5-5-2/3-3-3-3-3-3-3-3-------------------------|

[ Tab from: http://www.guitaretab.com/c/chiodos/75552.html ]
(Repeat Intro)
Part 1.
|------------------------------|
|------------------------------|
|------------------------------|
|6-6/7-7-7-7-7-7/11-11-9-9-9---|
|0-0-0-0-0-0-0-0-0--0--0-0-0---|
|------------------------------|

Part 2.
|------------------------------|
|------------------------------|
|------------------------------|
|6-6/7-7-7-7-7-7/4-4-2-2-2-----|
|0-0-0-0-0-0-0-0-0-0-0-0-0-----|
|------------------------------|


(Repeat twice)
|---------------------------------------------------------------------------
|---------------------------------------------------------------------------
|---------------------------------------------------------------------------
|7-------------------------------------------------7-7-7-6-6-6-6-7-7-7-7-7-7
|5-9-9-9-9-9-9-9-9-7-7-7-7-7-7-7-4/5-5-5-5-5-5-5-5-5-5-5-4-4-4-4-5-5-5-5-5-5
|--7-7-7-7-7-7-7-7-5-5-5-5-5-5-5-2/3-3-3-3-3-3-3-3--------------------------

Last part, let it ring.
|----|
|----|
|5---|
|0---|
|----|
|----|

The End
____________________________________________________________________________LYRICS
(Start intro here)

(verse)
This happiness surpasses me.
Just running up and down my spine
Whenever I'm around you
My smile beings to shine.

(chorus part 1)
The love I feel for you
is quite hard for anyone to find.
You're the one that I want to
wake up next to,
and just give us
Your beautiful blue eyes.

(chorus part 2)
Please never, ever leave me.
Just stay right here,
Always by my side.

(intro part again)

(verse again)
Your beauty radiates
just like the sun.
When I'm around you,
I tend to lose my breath.
There's no doubt 
that you're the one.
Your great smile makes me feel alive.
(start chorus part 1)
Your flawless personality,
combined with your godly looks, 
makes you more than perfect.

Please never, ever leave me.
Just stay right here,
Always by my side.
(intro part again)

(chorus part 2)
Please never, ever leave me.
Just stay right here,
Always by my side. 






Related for Beautiful Blue Eyes tab
×
Beautiful Blue Eyes