Guitaretab - guitar tabs
Song name
# A B C D E F G H I J K L M N O P Q R S T U V W X Y Z

Chiodos - To Trixie And Reptile Thanks tab

-------------------------------------------------------------------------------
			     TO TRIXIE AND REPTILE, THANKS - CHIODOS
-------------------------------------------------------------------------------
Tabbed by: empty handed

Tuning: drop D

guitar 1
e|--------------------|
B|--------------------|
G|1313xx1111xx99xx88xx|
D|xxxxxxxxxxxxxxxxxxxx|x3
A|1111xx9--9xx77xx66xx|
D|--------------------|    

e|--------------------------|
B|--------------------------|
G|1212121212121212----------|
D|xxxxxxxxxxxxxxxx----------|
A|141414141414141444444444--|
D|----------------44444444--|
                  ........

e|--------------------|
B|--------------------|
G|1313xx1111xx--1111--|
D|xxxxxxxxxxxx--xxxx--|
A|1111xx9--9xx--9--9--|
D|--------------------|

guitar 2 (comes in second time)
e|-----------------------------------------------------------------|
B|-----------------------------------------------------------------|
G|66xx88xx99xx88xx66xx88xx99xx88-16161616161616161313131313131313--|
D|xxxxxxxxxxxxxxxxxxxxxxxxxxxxxx-xxxxxxxxxxxxxxxxxxxxxxxxxxxxxxxx--|
A|44xx66xx77xx66xx44xx66xx77xx66-14141414141414141111111111111111--|
D|-----------------------------------------------------------------|

e|----------------|
B|----------------|
G|66xx88xx--1111--|
D|xxxxxxxx--xxx---|
A|44xx66xx--9-9---|
D|----------------

verse (both guitars)
e|-------------------------------------------------------------------------------------------|
B|-------------------------------------------------------------------------------------------|
G|66xx88xx99xx88xx99xx1111xx99xx88xx66xx88xx99xx88xx161616161616161616161616161616-----------|
D|xxxxxxxxxxxxxxxxxxxxxxxxxxxxxxxxxxxxxxxxxxxxxxxxxxxxxxxxxxxxxxxxxxxxxxxxxxxxxxxx----6~---6-|
A|44xx66xx77xx66xx77xx9--9xx77xx66xx44xx66xx77xx66xx141414141414141414141414141414----4~---4-|
D|-------------------------------------------------------------------------------------------|

guitar 1
e|----------------------|
B|----------------------|
G|----------------------|
D|------4---------------|x3
A|4-6-7--4-7-7-7-6-6-6--|
D|----------------------|
  ....................

guitar 2
e|----------------------------------------------------------|
B|----------------------------------------------------------|
G|13-1313-9-999-111111-13-1313-9-999-888-13-1313-9-999-1111-|
D|xx-xxxx-xxxxx-xxxxx--x--xxxx-x-xxx-xxx-x--xxxx-x-xxx-xxxx-|
A|11-1111-7-777-9-9-9--11-1111-7-777-666-11-1111-7-777-9-9--|
D|----------------------------------------------------------|

chorus - both guitars
e|---------------------------------------------------|
B|---------------------------------------------------|
G|---------------------------------------------------|
D|666664442226666644422266666444222-444-444-222-222--|
A|444442220004444422200044444222000-222-222-000-000--|
E|---------------------------------------------------|
                                    ..  ..  ..  ..

e|----------------------------------------|
B|----------------------------------------|
G|----------------------------------------|
D|666664442226666644422266666444222-44-2~-|
A|444442220004444422200044444222000-22-0~-|
E|----------------------------------------|

verse

guitar 1
e|-----------------------------------------------------|
B|-----------------------------------------------------|
G|1313131313131313131313131313131313131313131313131313-|
D|xxxxxxxxxxxxxxxxxxxxxxxxxxxxxxxxxxxxxxxxxxxxxxxxxxxx-|
A|1111111111111111111111111111111111111111111111111111-|
D|-----------------------------------------------------|
  ....................................................
[ Tab from: http://www.guitaretab.com/c/chiodos/77031.html ]
e|-----------------------------------------------------|
B|-----------------------------------------------------|
G|9xxxxxx9xxxxxx9xxxxxx99999999-9xxxxxx9xxxxxx9xxxxxx--|
D|xxxxxxxxxxxxxxxxxxxxxxxxxxxxx-xxxxxxxxxxxxxxxxxxxxx--|
A|7xxxxxx7xxxxxx7xxxxxx77777777-7xxxxxx7xxxxxx7xxxxxx--|
D|-----------------------------------------------------|

guitar 2
e|----------------------------------------|
B|----------------------------------------|
G|14141313111199xxxx1414131316161414xxxx--|
D|xxxxxxxxxxxxxxxxxxxxxxxxxxxxxxxxxxxxxx--|
A|121211119--977xxxx1212111114141212xxxx--|
D|----------------------------------------|

e|-------------------------------------------------------|
B|------------------------9-10-9-------------------------|
G|9xxxxxx9xxxxxx9xxxxxx-99-9--9-9-9xxxxxx9xxxxxx9xxxxxx--|
D|xxxxxxxxxxxxxxxxxxxxxxxxxxxxxxxxxxxxxxxxxxxxxxxxxxxxx--|
A|7xxxxxx7xxxxxx7xxxxxx-----------7xxxxxx7xxxxxx7xxxxxx--|
D|-------------------------------------------------------|

chorus - both guitars
e|---------------------------------------------------|
B|---------------------------------------------------|
G|---------------------------------------------------|
D|666664442226666644422266666444222-444-444-222-222--|
A|444442220004444422200044444222000-222-222-000-000--|
E|---------------------------------------------------|
                                    ..  ..  ..  ..

e|--------------------------------------|
B|--------------------------------------|
G|--------------------------------------|
D|666664442226666644422266666444222-44--|
A|444442220004444422200044444222000-22--|
E|--------------------------------------|

bridge - clean

guitar 1
e|---------------------------------------|
B|2222222222222222222222222222222222222--|
G|---------------------------------------|
D|---------------------------------------|x a lot
A|---------------------------------------|
D|---------------------------------------|
  .....................................

guitar 2
e|00000000000000000000000000000000000000-|
B|---------------------------------------|
G|---------------------------------------|
D|---------------------------------------|
A|---------------------------------------|
D|---------------------------------------|
  ......................................

e|------------4------|
B|-5-7-5-x4--5-5-x4--|
G|4---------4--------|
D|-------------------|
A|-------------------|
D|-------------------|

only guitar 2
e|--------------------------------------|
B|-5-5-5-----4-4-4----5555555544444444--|
G|4-4-4-2-4-4-4-4-2-4-4444444444444444--|
D|--------------------------------------|
A|--------------------------------------|
D|--------------------------------------|

both guitars
e|-------------------------------------|
B|-------------------------------------|
G|6666666699999999--------111111111111-|
D|xxxxxxxxxxxxxxxxxxxxxxxxxxxxxxxxxxxx-|
A|4444444477777777777777779-9-9-9-9-9--|
D|----------------77777777-------------|

e|-------------------------------------------|
B|------r------------------------------------|
G|66666-e-9999-11111111--------111111119999--|
D|xxxxx-s-xxxxxxxxxxxxx--------xxxxxxxxxxxx--| x2
A|44444-t-7777-9-9-9-9-777777779-9-9-9-7777--|
D|---------------------77777777--------------|

e|-----------------------------------------|
B|-----------------------------------------|
G|66666666999911111111-------111111119999--|
D|xxxxxxxxxxxxxxxxxxx--------xxxxxxxxxxxx--| rest of the song
A|4444444477779-9-9-9777777779-9-9-9-7777--|
D|-------------------77777777--------------|

| /  slide up
| \  slide down
| h  hammer-on
| p  pull-off
| ~  vibrato
| +  harmonic
| x  Mute note
===============================================================================
Related for To Trixie And Reptile Thanks tab
×
Best way to learn
"To Trixie And Reptile Thanks"