Song name
# A B C D E F G H I J K L M N O P Q R S T U V W X Y Z

Chiodos - The Lover And The Liar tab

CHIODOS - THE LOVER AND THE LIAR

DROP "D" AND PLAY, THIS TAB IS DEDICATED TO  "Scary Denniz Scaring Omar"

INTRO
|-------|
|-------|
|-------|
|-2-2---|
|-2-2---|
|-0-0---|
  . .

|-----------------------------------------------|
|-----------------------------------------------|
|--12-11-11-12-11-12-14---12-11-11-12-7-9-------|
|--X--X--X--X--X--X--X----X--X--X--X--X-X-------| [X3]
|--10-9--9--10-9--10-12---10-9--9--10-5-7-------|
|-----------------------------------------------|

|----------------------------------------|
|----------------------------------------|
|--12-11-11-12-11-12-14---12-11-11-12----|
|--X--X--X--X--X--X--X----X--X--X--X-----| 
|--10-9--9--10-9--10-12---10-9--9--10----|
|----------------------------------------|

VERSE
WE'RE ON A SEARCH..
|---------------------------------------------------|  /
|---------------------------------------------------|  /
|-----9-11---9-11--9----9-11---11-12--12--12--11----|  /
|-----X-X----X-X---X----X-X----X--X---X---X---X-----|  /
|-----7-9----7-9---7----7-9----9--10--10--10--9-----|  /
|--0-0----0-0----0---0-0----0-0---------------------|  /
   . .    . .    .   . .    . .                        /    [x3]
                                                       /    
|---------------------------------------------------|  /
|------------------------------12-13--13--13--12----|  /
|-----9-11---9-11--9----9-11---X--X---X---X---X-----|  /
|-----X-X----X-X---X----X-X----9--10--10--10--9-----|  /
|-----7-9----7-9---7----7-9-------------------------|  /
|--0-0----0-0----0---0-0----0-0---------------------|  /
   . .    . .    .   . .    . .  

THE MINI SOLO (TRY TO PLAY THIS FAST AND TRY TO LISTEN THE TIME CAUZE IS DIFICULT TO WRITE)
|----------------------------------------------------------------------|
|------8-7-5-8-7-5-8-7-5-8-7-5-8-7-5-8-7-5-8-7-5-8-7-5-8-7-5-8-7-5-----|
|----------------------------------------------------------------------|
|----------------------------------------------------------------------|
|-2-2-2----------------------------------------------------------------|
|-0-0-0----------------------------------------------------------------|
  . . .

|----------------------------------------------------------------------|
|--8-7-0-8-7-0-8-7-0-8-7-0-8-7-0-8-7-0-10-8-0-8-7-0-10-8-0-7-8-10------|
|----------------------------------------------------------------------|
|----------------------------------------------------------------------|
|----------------------------------------------------------------------|
|----------------------------------------------------------------------|

|-------------------------------------------------------------------------------|
|--12-10-0-12-10-0-12-10-0-12-10-0-12-10-0-13-12-10-13-12-10-13-12-10-13-12-10--|
|-------------------------------------------------------------------------------|
|-------------------------------------------------------------------------------|
|-------------------------------------------------------------------------------|
|-------------------------------------------------------------------------------|

|------------------------------------------------------------------------|
|--10-8-0-10-8-0-10-8-0-10-8-0-10-8-0-12-10-0-12-10-0-12-10-0-12////-----|
|------------------------------------------------------------------------|
|------------------------------------------------------------------------|
|------------------------------------------------------------------------|
|------------------------------------------------------------------------|

THE CONECTION....
|--------------------------------------------------------| /
|--------------------------------------------------------| /
|--12-11-12---14--12---14-14-14-16-16-16-17-17-17-16-----| /
|--X--X--X----X---X----X--X--X--X--X--X--X--X--X--X------| /
|--10-9--10---12--10---12-12-12-14-14-14-15-15-15-14-----| /
|--------------------------------------------------------| /
                                                           /  [X2]
|--------------------------------------------------------| /
|--------------------------------------------------------| /
|--12-11-12---11-12---12-12-12-11-11-11-7-7-7-7----------| /
|--X--X--X----X--X----X--X--X--X--X--X--X-X-X-X----------| /
|--10-9--10---9--10---10-10-10-9--9--9--5-5-5-5----------| /
|--------------------------------------------------------| /

|--------8-10-8-------10-8-7-----|       |---0----|
|--------------------------------|       |---0----|
|--------------------------------| [X7]  |---0----|
|--------------------------------|       |--------|
|--2-2-2--------2-2-2------------|       |--------|
|--0-0-0--------0-0-0------------|       |--------|
   . . .        . . .

BRIDGE
|------------------|
|------------------|
|------------------|  [x4]
|------------------|
|-2-2-2-2-2-2-2----|
|-0-0-0-0-0-0-0----|
  . . . . . . .

|----------------------------------------------------------------|
|----------------------------------------------------------------|
|--12-12-12-12-12-11-11-11-12-12-14-12-12-12-12-11-11-11-12-12---|
|--X--X--X--X--X--X--X--X--X--X--X--X--X--X--X--X--X--X--X--X----|
|--10-10-10-10-10-9--9--9--10-10-12-10-10-10-10-9--9--9--10-10---|
|----------------------------------------------------------------|

|-------------------------------------------------------|
|-------------------------------------------------------|
|--12-12-12-12-12-12-12-12-14-14-14-14-14-14-14-14------|
|--X--X--X--X--X--X--X--X--X--X--X--X--X--X--X--X-------|
|--10-10-10-10-10-10-10-10-12-12-12-12-12-12-12-12------|
|-------------------------------------------------------|

|-------------------------------------------------------|
|-------------------------------------------------------|
|--16-16-16-16-14-14-14-14-----12----11---11---11-------|
|--X--X--X--X--X--X--X--X------X-----X----X----X--------| 
|--14-14-14-14-12-12-12-12-----10----9----9----9--------|
|--------------------------0-0----0-0--0-0--0-0---------|
                           . .    . .  . .  . .

|-------------------------------------------------------|
|-------------------------------------------------------|
|--16-16-16-16-14-14-14-14-----12----11---11---12-------|
|--X--X--X--X--X--X--X--X------X-----X----X----X--------| 
|--14-14-14-14-12-12-12-12-----10----9----9----10-------|
|--------------------------0-0----0-0--0-0--0-0---------|
                           . .    . .  . .  . .

|----------------------------------------------------------------|
|----------------------------------------------------------------|
|--12-12-12-12-12-11-11-11-12-12-14-12-12-12-12-11-11-11-12-12---|
|--X--X--X--X--X--X--X--X--X--X--X--X--X--X--X--X--X--X--X--X----|
|--10-10-10-10-10-9--9--9--10-10-12-10-10-10-10-9--9--9--10-10---|
|----------------------------------------------------------------|

|-------------------------------------------------------|
|-------------------------------------------------------|
|--12-12-12-12-12-12-12-12-14-14-14-14-14-14-14-14------|
|--X--X--X--X--X--X--X--X--X--X--X--X--X--X--X--X-------|
|--10-10-10-10-10-10-10-10-12-12-12-12-12-12-12-12------|
|-------------------------------------------------------|

|-------------------------------------------------------|
|-------------------------------------------------------|
|--16-16-16-16-14-14-14-14-----12----11---11---11-------|
|--X--X--X--X--X--X--X--X------X-----X----X----X--------| 
|--14-14-14-14-12-12-12-12-----10----9----9----9--------|
|--------------------------0-0----0-0--0-0--0-0---------|
                           . .    . .  . .  . .

|---------------------------------------------|
|---------------------------------------------|
|--16-16-16-16-14-14-14-14-----12----11-------|
|--X--X--X--X--X--X--X--X------X-----X--------| 
|--14-14-14-14-12-12-12-12-----10----9--------|
|--------------------------0-0----0-0--0-0----|
                           . .    . .  . .  

|----------------------------------------------------------------|
|----------------------------------------------------------------|
|--12-12-12-12-12-11-11-11-12-12-14-12-12-12-12-11-11-11-12-12---|
|--X--X--X--X--X--X--X--X--X--X--X--X--X--X--X--X--X--X--X--X----|
|--10-10-10-10-10-9--9--9--10-10-12-10-10-10-10-9--9--9--10-10---|
|----------------------------------------------------------------|

|-------------------------------------------------------|
|-------------------------------------------------------|
|--12-12-12-12-12-12-12-12-14-14-14-14-14-14-14-14------|
|--X--X--X--X--X--X--X--X--X--X--X--X--X--X--X--X-------|
|--10-10-10-10-10-10-10-10-12-12-12-12-12-12-12-12------|
|-------------------------------------------------------|

|-------------------------------------------------------|
|-------------------------------------------------------|
|--16-16-16-16-14-14-14-14-----12----11---11---11-------|
|--X--X--X--X--X--X--X--X------X-----X----X----X--------| 
|--14-14-14-14-12-12-12-12-----10----9----9----9--------|
|--------------------------0-0----0-0--0-0--0-0---------|
                           . .    . .  . .  . .

|---------------------------|
|---------------------------|
|--16-16-16-16-14-14-14-14--|
|--X--X--X--X--X--X--X--X---| 
|--14-14-14-14-12-12-12-12--|
|---------------------------|

|---------------------------------------------------|  /
|---------------------------------------------------|  /
|-----9-11---9-11--9----9-11---11-12--12--12--11----|  /
|-----X-X----X-X---X----X-X----X--X---X---X---X-----|  /
|-----7-9----7-9---7----7-9----9--10--10--10--9-----|  /
|--0-0----0-0----0---0-0----0-0---------------------|  /
   . .    . .    .   . .    . .                        /    [x2]
                                                       /    
|---------------------------------------------------|  /
|------------------------------12-13--13--13--12----|  /
|-----9-11---9-11--9----9-11---X--X---X---X---X-----|  /
|-----X-X----X-X---X----X-X----9--10--10--10--9-----|  /
|-----7-9----7-9---7----7-9-------------------------|  /
|--0-0----0-0----0---0-0----0-0---------------------|  /
   . .    . .    .   . .    . .  

|----------------------------------------| /
|----------------------------------------| /
|------9---9-11--9-----9---12---12-11----| /
|------X---X-X---X-----X---X----X--X-----| /
|------7---7-9---7-----7---10---10-9-----| /
|--0-0---0-----0---0-0---0----0----------| /
   . .   .     .   . .   .    .            / [x2]
                                           /
|----------------------------------------| /
|--------------------------13---13-12----| /
|------9---9-11--9-----9---X----X--X-----| /
|------X---X-X---X-----X---10---10-9-----| /
|------7---7-9---7-----7-----------------| /
|--0-0---0-----0---0-0---0----0----------| /
   . .   .     .   . .   .    .    

OUTRO    
CRAVINGS FULFILLED...
|-----------------------------------------------|
|-----------------------------------------------|
|----------------------------------11-12-11-----|
|----------------------------------X--X--X------|
|----------------------------------9--10-9------|
|--0-0---0-0-0-0---0-0-0-0---0-0-0--------------| 
   . .   . . . .   . . . .   . . . 
                  
|-----------------------------------------------|
|----------------------------------11-12-11-----|
|----------------------------------X--X--X------|
|----------------------------------9--10-9------|
|-----------------------------------------------|
|--0-0---0-0-0-0---0-0-0-0---0-0-0--------------| 
   . .   . . . .   . . . .   . . . 

|---------------------------------------------------|
|---------------------------------------------------|
|----------------------------------11-12-11---------|
|----------------------------------X--X--X----------|
|----------------------------------9--10-9------2---|
|--0-0---0-0-0-0---0-0-0-0---0-0-0--------------0---| 
   . .   . . . .   . . . .   . . .              .


AND THATS ALL,  HOPE IS FINE THIS

THANX    FREAKY WII ^^
Tap to rate this tab
 
# A B C D E F G H I J K L M N O P Q R S T U V W X Y Z