Song name
# A B C D E F G H I J K L M N O P Q R S T U V W X Y Z

Chiodos - Quantum Mechanics And Hydrodynamics tab

Chiodos - Quantum Mechanics And Hydrodynamics 

--------------------------------------------------------------------------------

Tuning: Standard (E A D G B E)

I love this song by Chiodos, so I thought id give a shot at tabbin it! enjoy n rate plz!

Intro
e-------------------------------------------------------------------|
b-------------------------------------------------------------------|
g-------------------------------------------------------------------|
d--9--9--9-------------5-------9--9--9-------------5------7---------|   x2
a--9--9--9--9b--9b--5X8---9--9--9--9b--9b--5x4--7x2-----------------|
e--7--7--7-------------3-------7--7--7--------------3-----5---------|

it's been so long it seems.....
e--------------------------------------------------------|
b--------------------------------------------------------|
g---------------------------------7----------------------|
d--9-------7-----5-------7-----5x8-----9--------7--------|   x2
a--9x8----7-----5x8----7-----5--------9x8-----7----------|
e--7-------5-----3--------5-------------7--------5-------|
pm...................................

the miles in between us......(pick very fast)
e----------------------------------------------------------|
b----------------------------------------------------------|
g----------------------------------------------------------|
d--9x6--7x6--5x8--5x6--4x6--0x8--0x6--4x6--5x8--5x6--7x8---|   x2
a----------------------------------------------------------|
e----------------------------------------------------------|

stop doubting what was said......
e---------------------------------------------------------------------------|
b---------------------------------------------------------------------------|
g---------------------------------------------------------------------------|
d-9--------777-----555--------------555------------555------------555-------|   x4
a-9x6-----777-----555--5~~7----555-5~~7----555-5~~7----555-5~~7-------------|
e-7--------555-----333--------------333------------333-------------333------|

Chorus 1 (your voice was broken......)
e--------------------------------------------------------------|
b--------------------------------------------------------------|
g--------------------------------------------------------------|
d--9-9-9------------5-------9-9-9--------------5-----7---------|   x2
a--9-9-9--9b-9b--5X8---9-9-9--9b--9b--5x4--7x2-----------------|
e--7-7-7------------3-------7-7-7--------------3-----5---------|

As i open this letter....
e-------------------------------|
b-------------------------------|
g----------------7--------------|
d-5---7---9---7-----------------|  x4
a-5---7---9---5-----------------|
e-3---5---7---------------------|

why cant we see forever.....
e------------------------------------|
b------------------------------------|
g-------------------------7----------|
d-5------7------9-------7x6----------|   x2
a-5x6---7x6---9x6---5----------------|
e-3------5-------7-------------------|
pm.............................


and that's all i have to remember.....
e----------------------------------------------------------------------------|
b----------------------------------------------------------------------------|
g--------------------------------------------------------------------7777----|
d-5555---------------7777---------------9999---------------7777--------------|   x2
a-5555---77--55---7777---77-55---9999----77-55---5555---55-77----------------|
e-3333---------------5555---------------7777---------------------------------|
pm.............................

Thats all i had to remember.....
e----------------------------------|
b----------------------------------|
g--------------------------7-------|
d-5------7------9-------7x6--------|   x4
a-5x6---7x6---9x6---5--------------|
e-3------5-------7-----------------|
pm.............................

Little guitar and bass solo
e---------------------------------------------------------|
b---------------------------------------------------------|
g---------------------------------------------------------|
d-999------7---7---999------7-----7---(555-------)--------|x2
a-999----------------999------------------(555-5~7)x4-----|
e-777---5---5-------777---5---5--------(333------)--------|

Chorus 2 (your voice was broken......)
e-----------------------------------------------------------|
b-----------------------------------------------------------|
g-----------------------------------------------------------|
d--9-9-9------------5-------9-9-9--------------5-----7------|   x2
a--9-9-9--9b-9b--5X8---9-9-9--9b--9b--5x4--7x2--------------|
e--7-7-7------------3-------7-7-7--------------3-----5------|

Tap to rate this tab
# A B C D E F G H I J K L M N O P Q R S T U V W X Y Z