Guitaretab - guitar tabs
Song name
# A B C D E F G H I J K L M N O P Q R S T U V W X Y Z

Chiodos - Queen Of Diamondsdemo tab

= = = = == == === ==== ===== ======The Queen of Diamonds====== ===== ==== ===
                                      (Acoustic)

                             UPDATED JUNE 13th 2008
                              RE-TABBED EVERYTHING

By: Chiodos
Tabbed By: Joe Bieke
Tuning Standard E A D G B e

 This is a bonus track off of Chiodos newest album ďAllís Well That Endís Well (Deluxe 
This song is a demo and is acoustic so hope you like it, I did the best I could.

                                NOTICE:
                          x - Mute String(s)
                         [ ]- Strum Quietly/lightly
                          ~ - Let Ring

                              ..::Intro::..

|--x-x-0-0-0~----0--0-0--0--0-0--0-0--0-0-0--0-0--0-0--1-1--1-1--1-1--1-1--|
|--x-x-0-0-0~----0--0-0--0--0-0--0-0--0-0-0--0-0--0-0--1-1--1-1--1-1--1-1--|
|--x-x-2-2-2~----2--2-2--2--2-2--2-2--2-2-2--2-2--2-2--2-2--2-2--2-2--2-2--|
|--x-x-2-2-2~----2--2-2--2--2-2--2-2--2-2-2--2-2--2-2--3-3--3-3--3-3--3-3--|
|--x-x-0-0-0~----0--0-0--0--0-0--0-0--0-0-0--0-0--0-0--0-0--0-0--0-0--0-0--|
|--x-x-0-0-0~----0--0-0--0--0-0--0-0--0-0-0--0-0--0-0--0-0--0-0--0-0--0-0--|

|--1-1--1-1--1-1--1-1--1--1-1--1-1-1--0-0-0--0-0--0-0--0-0--0--0-0--1-1-1-1-|
|--1-1--1-1--1-1--1-1--1--1-1--1-1-1--0-0-0--0-0--0-0--0-0--0--0-0--1-1-1-1-|
|--2-2--2-2--2-2--2-2--2--2-2--2-2-2--2-2-2--2-2--2-2--2-2--2--2-2--2-2-2-2-|
|--3-3--3-3--3-3--3-3--3--3-3--3-3-3--2-2-2--2-2--2-2--2-2--2--2-2--3-3-3-3-|
|--0-0--0-0--0-0--0-0--0--0-0--0-0-0--0-0-0--0-0--0-0--0-0--0--0-0--0-0-0-0-|
|--0-0--0-0--0-0--0-0--0--0-0--0-0-0--0-0-0--0-0--0-0--0-0--0--0-0--0-0-0-0-|

|--1-1-1-1-1-1-0~--0-0-0-0--0~----0-0-0-0-----------------------------------|
|--1-1-1-1-1-1-0~--0-0-0-0--0~----0-0-0-0-[1-1-1-1-1-1-1-1-1-1-1-1-1-1-]----|
|--2-2-2-2-2-2-2~--2-2-2-2--2~----2-2-2-2-[2-2-2-2-2-2-2-2-2-2-2-2-2-2-]----|
|--3-3-3-3-3-3-2~--2-2-2-2--2~----2-2-2-2-[3-3-3-3-3-3-3-3-3-3-3-3-3-3-]----|
|--0-0-0-0-0-0-0~--0-0-0-0--0~----0-0-0-0-[0-0-0-0-0-0-0-0-0-0-0-0-0-0-]----|
|--0-0-0-0-0-0-0~--0-0-0-0--0~----0-0-0-0-----------------------------------|

|--0-0-0-0--0~-----0-0-0-0--0~-----0-0-0-0-1-1-1-1-1-1-1-1-1-1-1-1-1-1-1-1--|
|--0-0-0-0--0~-----0-0-0-0--0~-----0-0-0-0-1-1-1-1-1-1-1-1-1-1-1-1-1-1-1-1--|
|--2-2-2-2--2~-----2-2-2-2--2~-----2-2-2-2-2-2-2-2-2-2-2-2-2-2-2-2-2-2-2-2--|
|--2-2-2-2--2~-----2-2-2-2--2~-----2-2-2-2-3-3-3-3-3-3-3-3-3-3-3-3-3-3-3-3--|
|--0-0-0-0--0~-----0-0-0-0--0~-----0-0-0-0-0-0-0-0-0-0-0-0-0-0-0-0-0-0-0-0--|
|--0-0-0-0--0~-----0-0-0-0--0~-----0-0-0-0-0-0-0-0-0-0-0-0-0-0-0-0-0-0-0-0--|
[ Tab from: http://www.guitaretab.com/c/chiodos/90197.html ]
|--1-1-1-1-1-1-1-1-1-1-1-1-0-0-0-0-0-0-0-0-0-0-0-0-0-0-0-0-0-0-0-0-1-1-1-1--|
|--1-1-1-1-1-1-1-1-1-1-1-1-0-0-0-0-0-0-0-0-0-0-0-0-0-0-0-0-0-0-0-0-1-1-1-1--|
|--2-2-2-2-2-2-2-2-2-2-2-2-2-2-2-2-2-2-2-2-2-2-2-2-2-2-2-2-2-2-2-2-2-2-2-2--|
|--3-3-3-3-3-3-3-3-3-3-3-3-2-2-2-2-2-2-2-2-2-2-2-2-2-2-2-2-2-2-2-2-3-3-3-3--|
|--0-0-0-0-0-0-0-0-0-0-0-0-0-0-0-0-0-0-0-0-0-0-0-0-0-0-0-0-0-0-0-0-0-0-0-0--|
|--0-0-0-0-0-0-0-0-0-0-0-0-0-0-0-0-0-0-0-0-0-0-0-0-0-0-0-0-0-0-0-0-0-0-0-0--|

|--1-1-1-1-1-1-1-1-1-1-1-1-----------x--x--x--x--x--x--x-------------x--x---|
|--1-1-1-1-1-1-1-1-1-1-1-1-1-1-1-1---x--x--x--x--x--x--x---1-1-1-1---x--x---|
|--2-2-2-2-2-2-2-2-2-2-2-2-2-2-2-2---x--x--x--x--x--x--x---2-2-2-2---x--x---|
|--3-3-3-3-3-3-3-3-3-3-3-3-3-3-3-3---x--x--x--x--x--x--x---3-3-3-3---x--x---|
|--0-0-0-0-0-0-0-0-0-0-0-0-----------x--x--x--x--x--x--x-------------x--x---|
|--0-0-0-0-0-0-0-0-0-0-0-0-----------x--x--x--x--x--x--x-------------x--x---|

|--x--x--x--x--x--x--1-1-1-1-1-1-1-1-1-1-1-1-1-1-1-1-1-1-1-1-1-1-1-1-1-1-1--|
|--x--x--x--x--x--x--1-1-1-1-1-1-1-1-1-1-1-1-1-1-1-1-1-1-1-1-1-1-1-1-1-1-1--|
|--x--x--x--x--x--x--2-2-2-2-2-2-2-2-2-2-2-2-2-2-2-2-2-2-2-2-2-2-2-2-2-2-2--|
|--x--x--x--x--x--x--3-3-3-3-3-3-3-3-3-3-3-3-3-3-3-3-3-3-3-3-3-3-3-3-3-3-3--|
|--x--x--x--x--x--x--0-0-0-0-0-0-0-0-0-0-0-0-0-0-0-0-0-0-0-0-0-0-0-0-0-0-0--|
|--x--x--x--x--x--x--0-0-0-0-0-0-0-0-0-0-0-0-0-0-0-0-0-0-0-0-0-0-0-0-0-0-0--|

|--5--5-5--5-5--5--5-5-5-5---5-5-5-5-5-5-5--1---x-x-x-x-x--1---x-x-x-x-x-x--|
|--5--5-5--5-5--5--5-5-5-5---5-5-5-5-5-5-5--1---x-x-x-x-x--1---x-x-x-x-x-x--|
|--5--5-5--5-5--5--5-5-5-5---5-5-5-5-5-5-5--2---x-x-x-x-x--2---x-x-x-x-x-x--|
|--7--7-7--7-7--7--7-7-7-7---7-7-7-7-7-7-7--3---x-x-x-x-x--3---x-x-x-x-x-x--|
|--7--7-7--7-7--7--7-7-7-7---7-7-7-7-7-7-7--0---x-x-x-x-x--0---x-x-x-x-x-x--|
|-----------------------------------------------x-x-x-x-x------x-x-x-x-x-x--|

|--1-1-1-1-1-1-1-1-1-1-1-1-1-1-1-1-1-5--5-5--5-5--5--5-5-5-5---5-5-5-5-5-5-5-|
|--1-1-1-1-1-1-1-1-1-1-1-1-1-1-1-1-1-5--5-5--5-5--5--5-5-5-5---5-5-5-5-5-5-5-|
|--2-2-2-2-2-2-2-2-2-2-2-2-2-2-2-2-2-5--5-5--5-5--5--5-5-5-5---5-5-5-5-5-5-5-|
|--3-3-3-3-3-3-3-3-3-3-3-3-3-3-3-3-3-7--7-7--7-7--7--7-7-7-7---7-7-7-7-7-7-7-|
|--0-0-0-0-0-0-0-0-0-0-0-0-0-0-0-0-0-7--7-7--7-7--7--7-7-7-7---7-7-7-7-7-7-7-|
|--0-0-0-0-0-0-0-0-0-0-0-0-0-0-0-0-0-----------------------------------------|

|--5-5-5-5-5-5-7-7----------------------------------------------------|
|--5-5-5-5-5-5-7-7--1--1-1--1--1--1--1-1-1----1--1-1--1--1--1--1-1-1--|
|--5-5-5-5-5-5-7-7--2--2-2--2--2--2--2-2-2----2--2-2--2--2--2--2-2-2--|
|--7-7-7-7-7-7-7-7--3--3-3--3--3--3--3-3-3----3--3-3--3--3--3--3-3-3--|
|--7-7-7-7-7-7-7-7--0--0-0--0--0--0--0-0-0----0--0-0--0--0--0--0-0-0--|
|-------------------0--0-0--0--0--0--0-0-0----0--0-0--0--0--0--0-0-0--|

|--0-0-0-0-0-0-0-0-0-0-0-0-0-0-0-0-0-0-0-0-0-0-0-0-0-0-------------------------|
|--0-0-0-0-0-0-0-0-0-0-0-0-0-0-0-0-0-0-0-0-0-0-0-0-0-0--1--1-1--1--1--1--1-1-1-|
|--2-2-2-2-2-2-2-2-2-2-2-2-2-2-2-2-2-2-2-2-2-2-2-2-2-2--2--2-2--2--2--2--2-2-2-|
|--2-2-2-2-2-2-2-2-2-2-2-2-2-2-2-2-2-2-2-2-2-2-2-2-2-2--3--3-3--3--3--3--3-3-3-|
|--0-0-0-0-0-0-0-0-0-0-0-0-0-0-0-0-0-0-0-0-0-0-0-0-0-0--0--0-0--0--0--0--0-0-0-|
|--0-0-0-0-0-0-0-0-0-0-0-0-0-0-0-0-0-0-0-0-0-0-0-0-0-0--0--0-0--0--0--0--0-0-0-|

|--------------------------0-0-0~--|
|--1--1-1--1--1--1--1-1-1--0-0-0~--|
|--2--2-2--2--2--2--2-2-2--2-2-2~--|
|--3--3-3--3--3--3--3-3-3--2-2-2~--|
|--0--0-0--0--0--0--0-0-0--0-0-0~--|
|--0--0-0--0--0--0--0-0-0--0-0-0~--|
Related for Queen Of Diamondsdemo tab