Song name
# A B C D E F G H I J K L M N O P Q R S T U V W X Y Z

Chiodos - Lindsay Quit Lollygagging tab

song title: Lindsay Quit Lollygagging
Artist: Chiodos
Tabbed by: Lester de dios
E-mail: lord_lestermuse@yahoo.com


Intro:

E------------------|
B--7--6------------|
G-------6----------|   4x
D------------------|
A------------------|
E------------------|

E------------------|
B--9--7--6---------|
G------------------|   4x
D------------------|
A------------------|
E------------------|

E------------------|
B--7--6------------|
G-------6----------|   4x
D------------------|
A------------------|
E------------------|

E------------------------------------------|
B--9--7--6--9--7--6--9/11--9--7--9--7--9---|
G------------------------------------------|
D------------------------------------------|
A------------------------------------------|
E------------------------------------------|

E-----------7-------------------7----------|
B--9-----9-----9-----9-9-----9-----9-----9-|
G-----9-----------9-------9-----------9----|
D------------------------------------------|
A------------------------------------------|
E------------------------------------------|

E-----------------------------------------------------|
B-----------------------------------------------------|
G--------8-----8-----8--------------6-----6-----6-----|
D-----9-----9-----9-----9--------7-----7-----7-----7--|
A--9--------------------------7-----------------------| 2x
E-----------------------------------------------------|

verse:

bite my tounge right now the perfect
E-----------7-------------------7----------|
B--9-----9-----9-----9-9-----9-----9-----9-|
G-----9-----------9-------9-----------9----|
D------------------------------------------|
A------------------------------------------|
E------------------------------------------|

 time, do anything to make her happy
E-----------------------------------------------------|
B-----------------------------------------------------|
G--------8-----8-----8--------------6-----6-----6-----|
D-----9-----9-----9-----9--------7-----7-----7-----7--|
A--9--------------------------7-----------------------|
E-----------------------------------------------------|

even if it means my being
E-----------7-------------------7----------|
B--9-----9-----9-----9-9-----9-----9-----9-|
G-----9-----------9-------9-----------9----|
D------------------------------------------|
A------------------------------------------|
E------------------------------------------|

miserable, as long as shes loving life
E-----------------------------------------------------|
B-----------------------------------------------------|
G--------8-----8-----8--------------6-----6-----6-----|
D-----9-----9-----9-----9--------7-----7-----7-----7--|
A--9--------------------------7-----------------------|
E-----------------------------------------------------|

chorus:

(use powerchords)


C#m            A
   I will be able to sleep at night

C#m               B
   with a smile upon her face

repeat 2x


thought of a smile not being
E-----------7-------------------7----------|
B--9-----9-----9-----9-9-----9-----9-----9-|
G-----9-----------9-------9-----------9----|
D------------------------------------------|
A------------------------------------------|
E------------------------------------------|

there, my inner feelings would be shattered
E-----------------------------------------------------|
B-----------------------------------------------------|
G--------8-----8-----8--------------6-----6-----6-----|
D-----9-----9-----9-----9--------7-----7-----7-----7--|
A--9--------------------------7-----------------------|
E-----------------------------------------------------|

a piece of glass puncturing my
E-----------7-------------------7----------|
B--9-----9-----9-----9-9-----9-----9-----9-|
G-----9-----------9-------9-----------9----|
D------------------------------------------|
A------------------------------------------|
E------------------------------------------|

heart, im bleeding from the inside
E-----------------------------------------------------|
B-----------------------------------------------------|
G--------8-----8-----8--------------6-----6-----6-----|
D-----9-----9-----9-----9--------7-----7-----7-----7--|
A--9--------------------------7-----------------------|
E-----------------------------------------------------|

repeat chorus:

as long as shes perfectly fine....
E--------------|
B--------------|
G--6--4--2-----|
D--6--4--2-----|  4x
A--4--2--0-----|
E--------------|


ad lib:

E---------------------------------------------|
B---------------------------------------------|
G---------------------------------------------|
D---6-6-6-6---4-4-4-4---2-2-2-2----4-4-4-4----|  2x
A--4-4-4-4---2-2-2-2---0-0-0-0----2-2-2-2-----|
E---------------------------------------------|


repeat chorus:
repeat (as long as shes perfectly fine..)

finish..


oh well, i did the best i could. sorry for the wrongs, errors, mistakes,etc.. i hope 
could help.. peace.. i love earth..
Tap to rate this tab
# A B C D E F G H I J K L M N O P Q R S T U V W X Y Z