Song name
# A B C D E F G H I J K L M N O P Q R S T U V W X Y Z

Chiodos - Teeth The Size Of Piano Keys tab

"TEETH THE SIZE OF PIANO KEYS"


intro:
|---5p0-5---5p0-5---5p0-5-----5p0-5---5p0-5----------|
|------6-------6-------6---------6-------6----666666-|
|---------------------------------------------999999-|
|-0-------0-------0-------3-0-------0----------------|
|-0-------0-------0-------3-0-------0----------------|
|-0-------0-------0-------3-0-------0----------------|


|---5p0-5---5p0-5---------5p0-5---5p0-5---------|
|------6-------6---66--------6-------6---666666-|
|------------------99--------------------999999-|
|-0-------0-----------3-0-------0---------------|
|-0-------0-----------3-0-------0---------------|
|-0-------0-----------3-0-------0---------------|



|--------------------|
|--------------------|
|-----------------6^-|
|-0----0----0-----9^-|
|-0-00-0-00-0-00-----|
|-0-00-0-00-0-00-----|
    ..   ..   ..


|---5p0-5---5p0-5---5p0-5-----5p0-5----------|
|------6-------6-------6---------6----666666-|
|-------------------------------------999999-|
|-0-------0-------0-------3-0----------------|
|-0-------0-------0-------3-0----------------|
|-0-------0-------0-------3-0----------------|


"you gave it to me..."
|------------------------------------------------------------|
|------------------------------------------------------------|
|-77-7-77-7-7-77-7-7/10/9/7---------1212121212---------99999-|
|-xx-x-xx-x-x-xx-x-x/-x/x/x-88-8-8-/-x-x-x-x-x-77-7-7-/xxxxx-|
|-55-5-55-5-5-55-5-5/-8/7/5-88-8-8-/1010101010-77-7-7-/77777-|
|---------------------------88-8-8-------------77-7-7--------|

"centuries deep and true..."
|---------------------------------------------------------------------------|
|---------------------------------------------------------------------------|
|-77-7-7-7-----77-7-7-7/10/9/7----------------------------------------------|
|-xx-x-x-x-000-xx-x-x-x/-x/x/x--00---------00---------00---------00---------|
|-55-5-5-5-000-55-5-5-5/-8/7/5--00-5h8p5h8-00-5h8p5h8-00-4h7p4h7-00-4h7p4h7-|
|----------000------------------00---------00---------00---------00---------|
           ...                  ..         ..         ..         ..

"i was wrong, graceless and sick..."
|----------------------------------4/7-12-9--------------7/10-15-12------|
|---------------------------------5--------10-----------8----------13----|
|-77-7-7-7----77-7-7-7/10/9/7----4-----------9---------7------------12---|
|-xx-x-x-x-00-xx-x-x-x/-x/x/x---5-------------10------8--------------13--|
|-55-5-5-5-00-55-5-5-5/-8/7/5--7----------------12--10----------------15-|
|----------00------------------------------------------------------------|
           ..                  ...                  . ..

"all of the things that i have learned..."
|---------------------------------------------------------------------------|
|---------------------------------------------------------------------------|
|-77-7-7-7-----77-7-7-7/10/9/7----------------------------------------------|
|-xx-x-x-x-000-xx-x-x-x/-x/x/x--00---------00---------00---------00---------|
|-55-5-5-5-000-55-5-5-5/-8/7/5--00-5h8p5h8-00-5h8p5h8-00-4h7p4h7-00-4h7p4h7-|
|----------000------------------00---------00---------00---------00---------|
           ...                  ..         ..         ..         ..

"there was no living creature as fowl as i..."
|-17-14-------15-12-------13-10-----------------|
|-----15--15------13--13------11-----11---10-11-|pick each note twice
|------14----------12----------10----9---10-----|
|-------15----------13----------11-11---12------|x2
|-----------------------------------------------|
|-----------------------------------------------|

"mattress...i had to leap up before it hit the floor..."
|-17-14--18-----20-18--22-20-18-20-18-20-18--18------------------------------|
|-----15---22-20-----22--------------------22--22-20-22-20-18-22-20-18-20-18-|
|----------------------------------------------------------------------------|
|----------------------------------------------------------------------------|
|----------------------------------------------------------------------------|
|----------------------------------------------------------------------------|

"and im so alone..."
|--------------------17-14-------15-12----13-|
|-18-17-18-17-18-20------15--15------13--13--|
|-------------------------14----------12-----|
|--------------------------15----------13----|
|--------------------------------------------|
|--------------------------------------------|

"illumination held out..."
|---------20-22-20-18-------------------------------------|
|-18-20-22-----------22~-20~-18~-17~-20~-18-17-18~-17~----|
|-----------------------------------------------------17~-|
|---------------------------------------------------------|
|---------------------------------------------------------|
|---------------------------------------------------------|

"you gave it to me..."
|------------------------------------------------------------|
|------------------------------------------------------------|
|-77-7-77-7-7-77-7-7/10/9/7---------1212121212---------99999-|
|-xx-x-xx-x-x-xx-x-x/-x/x/x-88-8-8-/-x-x-x-x-x-77-7-7-/xxxxx-|
|-55-5-55-5-5-55-5-5/-8/7/5-88-8-8-/1010101010-77-7-7-/77777-|
|---------------------------88-8-8-------------77-7-7--------|

"centuries deep and true..."
|---------------------------------------------------------------------------|
|---------------------------------------------------------------------------|
|-77-7-7-7-----77-7-7-7/10/9/7----------------------------------------------|
|-xx-x-x-x-000-xx-x-x-x/-x/x/x--00---------00---------00---------00---------|
|-55-5-5-5-000-55-5-5-5/-8/7/5--00-5h8p5h8-00-5h8p5h8-00-4h7p4h7-00-4h7p4h7-|
|----------000------------------00---------00---------00---------00---------|
           ...                  ..         ..         ..         ..

"i was wrong, graceless and sick..."
|----------------------------------4/7-12-9--------------7/10-15-12------|
|---------------------------------5--------10-----------8----------13----|
|-77-7-7-7----77-7-7-7/10/9/7----4-----------9---------7------------12---|
|-xx-x-x-x-00-xx-x-x-x/-x/x/x---5-------------10------8--------------13--|
|-55-5-5-5-00-55-5-5-5/-8/7/5--7----------------12--10----------------15-|
|----------00------------------------------------------------------------|
           ..                  ...                  . ..

"all of the things that i have learned..."
|---------------------------------------------------------------------------|
|---------------------------------------------------------------------------|
|-77-7-7-7-----77-7-7-7/10/9/7----------------------------------------------|
|-xx-x-x-x-000-xx-x-x-x/-x/x/x--00---------00---------00---------00---------|
|-55-5-5-5-000-55-5-5-5/-8/7/5--00-5h8p5h8-00-5h8p5h8-00-4h7p4h7-00-4h7p4h7-|
|----------000------------------00---------00---------00---------00---------|
           ...                  ..         ..         ..         ..

breakdown 1:
"THERE WAS NO LIVING CREATURE FOWL AS I..."
|---------------------------------------------------------------------------------|
|---------------------------------------------------------------------------------|
|---------------------------------------------------------------------------------|
|-00--------00-------00-------00-------00--------00-------00-------00-------------|
|-00-8-8h11-00-5-5h8-00-4-4h7-00-5-5h8-00-8-8h11-00-5-5h8-00-4-4h7-00-5h7p5h7p5h7-|
|-00--------00-------00-------00-------00--------00-------00-------00-------------|


breakdown 2:
"I....COULD FEEL MY SOUL DROPPING DOWN!"
|-------------------------------------------------------------------|
|---444444444444-----444---444-------444444444444-----444---444-----|
|---777777777777-----777---777-------777777777777-----777---777-----|
|-0-xxxxxxxxxxxx-0-0-xxx-0-xxx-000-0-xxxxxxxxxxxx-0-0-xxx-0-xxx-000-|
|-0-555555555555-0-0-555-0-555-000-0-555555555555-0-0-555-0-555-000-|
|-0--------------0-0-----0-----000-0--------------0-0-----0-----000-|
                               ...                              ...

outro:
|---5p0-5---5p0-5---5p0-5-----5p0-5---5p0-5----|
|------6-------6-------6---------6-------6-----|
|----------------------------------------------|
|-0-------0-------0-------3-0-------0-------33-|
|-0-------0-------0-------3-0-------0-------33-|
|-0-------0-------0-------3-0-------0-------33-|


key:

~    vibrato
h    hammer-on
p    pull-off
.    palm mute
x    muted note
/    slide up
^    bend up

brettw.
Tap to rate this tab
# A B C D E F G H I J K L M N O P Q R S T U V W X Y Z