Guitaretab - guitar tabs
Song name
# A B C D E F G H I J K L M N O P Q R S T U V W X Y Z

Chiodos - Undertakers Thirst For Revenge Is Unquenchable tab

Chiodos - The Undertaker's Thirst For Revenge Was Unquenchable

(drums)
jason & pat
|------------------------|
|------------------------|
|--0~--------------------|
|--0~--------------------|
|--0~--------------------|
|--0~--------------------|

(intro)

|------------------------------------------------------------------------------|
|------------------------------------------------------------------------------|
|------------------------------------------------------------------------------|
|--h3p0h3h6p3p0h3h6p3p0h3h6p3p0h3h6p3p0-h4p0h4h7p4p0h4h7p4p0h4h7p4p0h4h7p4p0---|
|------------------------------------------------------------------------------|
|------------------------------------------------------------------------------|(x2)


|----------------------------------------------------------|
|----------------------------------------------------------|
|----------------------------------------------------------|
|--0000---0-0000---0000----0----0000---0-0000---0000----0--|
|--0000---0-0000---0000----0----0000---0-0000---0000----0--|
|--0000---0-0000---0000----0----0000---0-0000---0000----0--|(x2)
 (p.m. - this very tricky but listen and learn the rhythm)

(intro pt.2)

|---------------------------------------------------------------------------------------------------------------------------|
|---------------------------------------------------------------------------------------------------------------------------|
|---------------------------------------------------------------------------------------------------------------------------|
|---------------------------------------------------------------------------------------------------------------------------|
|--h5h8p05h8p05h8p05h8p05h8p0h10--5h8p05h8p05h8p05h8p05h8p0h3--h5h8p05h8p05h8p05h8p05h8p0h10--5h8p05h8p05h8p05h8p05h8p0h3---|
|---------------------------------------------------------------------------------------------------------------------------|


|---------------------------------------------------------------------|
|--------------4--------------6---------------4----------------4------|
|--------------7--------------9---------------7----------------9------|
|--0-00-0-000--x--0-00-0-000--x---0-00-0-000--x---0-00-0-000---x------|
|--0-00-0-000--5--0-00-0-000--7---0-00-0-000--5---0-00-0-000---7------|
|--0-00-0-000-----0-00-0-000------0-00-0-000------0-00-0-000----------|


|--------------------------------------------------------------------------------------------------------------------------------------------------------------|
|--------------------------------------------------------------------------------------------------------------------------------------------------------------|
|--------------------------------------------------------------------------------------------------------------------------------------------------------------|
|--------------------------------------------------------------------------------------------------------------------------------------------------------------|
|--h8h12p0h8h12p0h8h12p0h8h12p0h8h12p0h13-h8h12p0h8h12p0h8h12p0h8h12p0h8h12p0h10-h8h12p0h8h12p0h8h12p0h8h12p0h8h12p0h13-h8h12p0h8h12p0h8h12p0h8h12p0h8h12p0h10-|
|--------------------------------------------------------------------------------------------------------------------------------------------------------------|

|---------------------------------------------------------------------|
|--------------4--------------6---------------4----------------4------|
|--------------7--------------9---------------7----------------9------|
|--0-00-0-000--x--0-00-0-000--x---0-00-0-000--x---0-00-0-000---x------|
|--0-00-0-000--5--0-00-0-000--7---0-00-0-000--5---0-00-0-000---7------|
|--0-00-0-000-----0-00-0-000------0-00-0-000------0-00-0-000----------|


|-----------------|
|-----------------|
|-----------------|
|--0--------------|
|--0--------------|
|--0--------------|

(piano bridge)


(chorus)

|--------------------------------------------------------------------|
|--------------------------------------------------------------------|
|--------------------------------------------------------9-----------|
|--0-000-777777-0-000-777777-555555557777777788888888-00-x-----------|
|--0-000-777777-0-000-777777-555555557777777788888888-00-7-----------|
|--0-000-777777-0-000-777777-555555557777777788888888-00-------------|(x2)



|--------------------------------------------------------------------------------|
|--------------------------------------------------------------------------------|
|--9-999-12121212121212--9-999-12121212121212-----------------------------9------|
|--x-xxx--x-x-x-x-x-x-x--x-xxx--x-x-x-x-x-x-x-555555557777777788888888-00-x------|
|--7-777-10101010101010--7-777-10101010101010-555555557777777788888888-00-7------|
|---------------------------------------------555555557777777788888888-00--------|(x2)


(verse?)

|--------------------------------------------------------------------|
|--t12p8p5h8p5h8t17p8p5h8p5h8t15p8p5h8p5t12p8p5t13p8p5---------------|
|--------------------------------------------------------------------|
|--------------------------------------------------------------------|
|--------------------------------------------------------------------|
|--------------------------------------------------------------------|(bunch of times)


|-----------------|
|-----------------|
|-----------------|
|--0~-------------|
|--0~-------------|
|--0~-------------|
[ Tab from: http://www.guitaretab.com/c/chiodos/94824.html ]
(verse cont.)

|--------------------------------------------------------------------|
|---t12p8p5h8p5h8t12p8p5h8p5h8t12p8p5h8p5t12p8p5t12p8p5--------------|
|--------------------------------------------------------------------|
|--------------------------------------------------------------------|
|--------------------------------------------------------------------|
|--------------------------------------------------------------------|(repeat a whole 
of times)


|-------------------------------------------------------------------------------|
|-------------------------------------------------------------------------------|
|--7-----10------9-----10------9---10---7-----10------9-----10------9---10------|
|--x-xxxx-x-xxxx-x-xxxx-x-xxxx-x-xx-x---x-xxxx-x-xxxx-x-xxxx-x-xxxx-x-xx-x------|
|--5-xxxx-8-xxxx-7-xxxx-8-xxxx-7-xx-8---5-xxxx-8-xxxx-7-xxxx-8-xxxx-7-xx-8------|
|----xxxx---xxxx---xxxx---xxxx---xx-------xxxx---xxxx---xxxx---xxxx---xx--------|(x2)

then they both do this

|--------------------------------------|
|--------------------------------------|
|--7-----10------9-----10------9---10--|
|--x-xxxx-x-xxxx-x-xxxx-x-xxxx-x-xx-x--|
|--5-xxxx-8-xxxx-7-xxxx-8-xxxx-7-xx-8--|
|----xxxx---xxxx---xxxx---xxxx---xx----|


|--------------------------------------|
|--------------------------------------|
|--7-----10------9-----10------9---10--|
|--x-xxxx-x-xxxx-x-xxxx-x-xxxx-x-xx-x--|
|--5-xxxx-8-xxxx-7-xxxx-8-xxxx-7-xx-8--|
|----xxxx---xxxx---xxxx---xxxx---xx----|


(bridge right before breakdown)

|-------------------------------------|
|-------------------------------------|
|--7--10--9--10--14-14----------------|
|--x---x--x---x---x--x----------------|
|--5---8--7---8--12-12----------------|
|-------------------------------------|


(breakdown)

|--------------------------------------------------------------------|
|--------------------------------------------------------------------|
|--------------------------------------------------------------------|
|--------------------------------------------------------------------|
|--8p0h8p0h7p0h7p0h8p0h8p0h8p0h7p0h7p0h12p0h12p0h12p0h12p0-----------|
|--------------------------------------------------------------------|(x4)



|---------------------------------------------------------|
|---------------------------------------------------------|
|-----10\9--10\9---5/-1414-----10\9--10\9---5/-1414-------|
|-0000-x-x---x-x---x---x-x-0000-x-x---x-x---x---x-x-------|
|-0000-8\7-0-8\7-0-3/-1212-0000-8\7-0-8\7-0-3/-1212-------|
|-0000-----0-----0---------0000-----0-----0---------------|(x2)


(chorus)

|--------------------------------------------------------------------|
|--------------------------------------------------------------------|
|--------------------------------------------------------9-----------|
|--0-000-777777-0-000-777777-555555557777777788888888-00-x-----------|
|--0-000-777777-0-000-777777-555555557777777788888888-00-7-----------|
|--0-000-777777-0-000-777777-555555557777777788888888-00-------------|(x2)



|--------------------------------------------------------------------------------|
|--------------------------------------------------------------------------------|
|--9-999-12121212121212--9-999-12121212121212-----------------------------9------|
|--x-xxx--x-x-x-x-x-x-x--x-xxx--x-x-x-x-x-x-x-555555557777777788888888-00-x------|
|--7-777-10101010101010--7-777-10101010101010-555555557777777788888888-00-7------|
|---------------------------------------------555555557777777788888888-00--------|(x2)


|--------------------------------------------------------------------|
|---t12p8p5h8p5h8t12p8p5h8p5h8t12p8p5h8p5t12p8p5t12p8p5--------------|
|--------------------------------------------------------------------|
|--------------------------------------------------------------------|
|--------------------------------------------------------------------|
|--------------------------------------------------------------------|(bunch of times)


|-----------------|
|-----------------|
|-----------------|
|--0~-------------|
|--0~-------------|
|--0~-------------|


|-----------------|
|-----------------|
|-----------------|
|--0--------------|
|--0--------------|
|--0--------------|
"time!!!!!!!!!"


(violin)

(outro)

|------------------------------------------------------------------------------|
|------------------------------------------------------------------------------|
|------------------------------------------------------------------------------|
|--h3p0h3h6p3p0h3h6p3p0h3h6p3p0h3h6p3p0-h4p0h4h7p4p0h4h7p4p0h4h7p4p0h4h7p4p0---|
|------------------------------------------------------------------------------|
|------------------------------------------------------------------------------|(x2)


|--------------------------------------------------------------------------------------------|
|--------------------------------------------------------------------------------------------|
|--------------------------------------------------------------------------------------------|
|--0000---0-0000---0000----0----0000---0-0000---0000----0--0000---0---0000---0---0000---0----|
|--0000---0-0000---0000----0----0000---0-0000---0000----0--0000---0---0000---0---0000---0----|
|--0000---0-0000---0000----0----0000---0-0000---0000----0--0000---0---0000---0---0000---0----|


|-----------------|
|-----------------|
|-----------------|
|--0--------------|
|--0--------------|
|--0--------------|

tylerp.
Related for Undertakers Thirst For Revenge Is Unquenchable tab
×
Undertakers Thirst For Revenge Is Unquenchable