Song name
# A B C D E F G H I J K L M N O P Q R S T U V W X Y Z

Chiodos - Bulls Make Money Bears Make Money Pigs Get Slaughtered tab

-------------------------------------------------------------------------------
    Bulls Make Money, Bears Make Money, Pigs Get Slaugtered - Chiodos
-------------------------------------------------------------------------------
Tabbed by: Ian Dalton
Email: Daltonator9690@gmail.com

Tuning: Drop D (DADGBe)

e|---5p0---5p0---5---5p0---5p0---5-------|
B|---6---6-----6-----6---6-----6---------| (played once, then drums come in)
G|---7---------------7-------------------|
D|---------------------------------------|
A|---------------------------------------|
D|---------------------------------------|

Note: I'm not positive of the last chord.

e|---10p0----10p0----10--6p0---6p0---6---|
B|---11---11------11-----8---8-----8-----| 
G|---12------------------8---------------|
D|---------------------------------------|
A|---------------------------------------|
D|---------------------------------------|
(play both parts 4 times total. End on the |XXX886| chord.)

This is all I could pick up from the intro, teach me the rest of the song!
Tap to rate this tab
# A B C D E F G H I J K L M N O P Q R S T U V W X Y Z