Song name
# A B C D E F G H I J K L M N O P Q R S T U V W X Y Z

Chiodos - A Letter From Janelle tab

"A LETTER FROM JANELLE"


(PIANO):
|--------------------------------|
|--------------------------------|
|-14~-12~-10~9-10-12-10-9-10--12-|
|--------------------------------|
|--------------------------------|
|--------------------------------|

im pretty sure the intro tapping is correct. 

intro:
|------------------------------------------|
|------------------------------------------|
|------------------------------------------|
|------------------------------------------|x2
|-t15p8t15p8t12p8t15p8t12p8t12p8t15p8t12p8-|
|------------------------------------------|


intro cont.:
|--------------------------------------------------|
|--------------------------------------------------|
|--------------------------------------------------|
|--------------------------------------------------|x2
|-t17p10t17p10t15p10t17p10t15p10t15p10t17p10t15p10-|
|--------------------------------------------------|


|------|
|-10---|
|-10---|
|--8---|
|--8---|
|--8---|

chorus:
|-1010101010101010101012121212121212121212131313131313151515151515151515-|
|------------------------------------------------------------------------|
|------------------------------------------------------------------------|
|------------------------------------------------------------------------|
|------------------------------------------------------------------------|
|------------------------------------------------------------------------|


chorus cont.:
|-1717171717171717171515151515151515151717171717171717171713131313131313131313-|
|------------------------------------------------------------------------------|
|------------------------------------------------------------------------------|
|------------------------------------------------------------------------------|
|------------------------------------------------------------------------------|
|------------------------------------------------------------------------------|


chorus part 2.:
|-10101010101010101010121212121212121212121313131313131515151717171717171717-|
|----------------------------------------------------------------------------|
|----------------------------------------------------------------------------|
|----------------------------------------------------------------------------|
|----------------------------------------------------------------------------|
|----------------------------------------------------------------------------|


chorus part 2 cont.:
|-19191919191919191919171717171717171717171919191919191919191915151515151515151515-|
|----------------------------------------------------------------------------------|
|----------------------------------------------------------------------------------|
|----------------------------------------------------------------------------------|
|----------------------------------------------------------------------------------|
|----------------------------------------------------------------------------------|

|-11-----12--13------|
|---10-13------11-13-|
|--------------------|
|--------------------|
|--------------------|
|--------------------|

|-----------------------------------|jason does some additional tapping but
|-----------------------------------|i dont know that part yet. 
|-----------------------------------|
|-t10p5t8p5t7p5t8p5t7p5t7p5t8p5t7p5-|x8
|-----------------------------------|
|-----------------------------------|


|---------------------------------------------------------------|
|---------------------------------------------------------------|
|---------------------------------1010101010101010-121212121212-|
|-12121212121212121212121212121212------------------------------|
|---------------------------------------------------------------|
|---------------------------------------------------------------|
                                                          x2
|-----------------------------------------------------|  /
|-----------------------------------------------------| /
|-1414141414141414141414141414------------------------|/
|------------------------------77777777777-5555555555-|
|-----------------------------------------------------|
|-----------------------------------------------------|


chorus:
|-1010101010101010101012121212121212121212131313131313151515151515151515-|
|------------------------------------------------------------------------|
|------------------------------------------------------------------------|
|------------------------------------------------------------------------|
|------------------------------------------------------------------------|
|------------------------------------------------------------------------|


chorus cont.:
|-1717171717171717171515151515151515151717171717171717171713131313131313131313-|
|------------------------------------------------------------------------------|
|------------------------------------------------------------------------------|
|------------------------------------------------------------------------------|
|------------------------------------------------------------------------------|
|------------------------------------------------------------------------------|


chorus part 2.:
|-10101010101010101010121212121212121212121313131313131515151717171717171717-|
|----------------------------------------------------------------------------|
|----------------------------------------------------------------------------|
|----------------------------------------------------------------------------|
|----------------------------------------------------------------------------|
|----------------------------------------------------------------------------|


chorus part 2 cont.:
|-19191919191919191919171717171717171717171919191919191919191915151515151515151515-|
|----------------------------------------------------------------------------------|
|----------------------------------------------------------------------------------|
|----------------------------------------------------------------------------------|
|----------------------------------------------------------------------------------|
|----------------------------------------------------------------------------------|

|-11-----12--13------|
|---10-13------11-13-|
|--------------------|
|--------------------|
|--------------------|
|--------------------|

Outro:
|-10--13-12-----12----12-12-------------------------|
|--10------13-----13-------13--(15every other time)-|
|---10-------14-----14-------14---------------------|
|---------------------------------------------------|x8
|---------------------------------------------------|
|---------------------------------------------------|


key:

~    vibrato
t    tap

brettw.
Tap to rate this tab
 
# A B C D E F G H I J K L M N O P Q R S T U V W X Y Z