Song name
# A B C D E F G H I J K L M N O P Q R S T U V W X Y Z

Chixdiggit - Spannish Fever tab

Chixdiggit 

Spannish Fever

s=sweep pick
^ or b=bend
v or r=release bend
_ or h=hammer on
_ or p=pull off


Solo:
    s s                  h  p      
e|-----9-10--12--10--9--9_10_9------9--9--9--9--8--------|
B|---10------------------------10~~-10-10-10-10-9-7-3~~--|
G|-11----------------------------------------------------|
D|-------------------------------------------------------|
A|-------------------------------------------------------|
E|-------------------------------------------------------|


          2xbends    h  h  h  b & hold   
e|-----------------------------------------------|
B|-3-2-3--5^^-3-5~~------------------------------|
G|------------------------2_4-4^-4-4-4-4*v-2-----|
D|---------------------2_4-----------------0-----|
A|------------------2_4--------------------------|
E|-----------------------------------------------|

    p p   p p   p p   p p   p p   p p   p p   p p                           slide   
e|-------------------------------------------------|---------17-15-12-15_12--------------|
B|-------------------------------------------------|------------------------13\\\\-------|
D|-4_2_0-4_2_0-4_2_0-4_2_0-4_2_0-4_2_0-4_2_0-4_2_0-|-2--5-7------------------------------|
E|-------------------------------------------------|-2--5-7------------------------------|
G|-------------------------------------------------|-0--3-5------------------------------|
A|-------------------------------------------------|-------------------------------------|

            h             b           h    b      b/r    
e|-----------------------------|-----------------------(15)-|
B|--------------15-------15^---|----------------------------|
D|-2--5-7-16_17----17-16-17^---|----------14^^^---14--------|
E|-2--5-7----------------------|----14_16------16-16^v------|
G|-0--3-5----------------------|----------------------------|
A|-----------------------------|----------------------------|
Tap to rate this tab
# A B C D E F G H I J K L M N O P Q R S T U V W X Y Z