Song name
# A B C D E F G H I J K L M N O P Q R S T U V W X Y Z

Chixdiggit - Should Have Played Football In High School tab

---------------------------------------------------------------------------
             Should have played football in High School
                             Chixdiggit
-------------------------------------------------------------------------------
Tabbed by:Tom Nelson
Email:Thomas_01@hotmail.com

Tuning:Standard

Intro
e|--------------------------------------------------------------------------|
B|--------------------------------------------------------------------------|
G|--------------------------------------------------------------------------|
D|-12-12-12-12-12-14-12-12-12-12-12-14-12-12-12-12-12-14--------------------|
A|--------------------------------------------------------------------------|
E|--------------------------------------------------------------------------|
Verse/Chorus(Listen for strumming,quite easy)
e|---------------------------------------------------------------------------|
B|---------------------------------------------------------------------------|
G|-7-------------------------------------------------------------------------|
D|-7--5--7-------------------------------------------------------------------|
A|-5--5--7-------------------------------------------------------------------|
E|----3--5-------------------------------------------------------------------|
Bridge
e|--------------------------------------------------------------------------|
B|--------------------------------------------------------------------------|
G|---------------------------7----------------------------------------------|
D|--6/7-----5------6/7-------7----------------------------------------------|
A|--6/7--x4-5------6/7--x4---5----------------------------------------------|
E|--4/5-----3------4/5------------------------------------------------------|


| /  slide up
| \  slide down
| h  hammer-on
| p  pull-off
| ~  vibrato
| +  harmonic
| x  Mute note
Tap to rate this tab
 
# A B C D E F G H I J K L M N O P Q R S T U V W X Y Z