Song name
# A B C D E F G H I J K L M N O P Q R S T U V W X Y Z

Chixdiggit - Quit Your Job tab

Song: Quit Your Job
Band: Chixdiggit!
Album: Born On The First Of July
Label: Honest Don's Records
Written and Performed By: Chixdiggit!
Tabbed By: ultimatelefty

Here's a fun short song, I'm pretty positive that it's pretty well correct.
Please rate, comment, and enjoy!

e|------------------------------------------------------------------------|
B|------------------------------------------------------------------------|
G|------------10-----------------------------------------55555555---------|
D|-10-10-1010-10-10--10--10--10--10--x10-33333333555555555555555533333333-|
A|-10-10-1010--8-10--10--10--10--10--x10-33333333555555553333333333333333-|
E|--8--8--8-8-----8---8---8---8---8--x-8-1111111133333333--------11111111-|

e|--------------------------------------------------------|
B|--------------------------------------------------------|
G|----------------------------------10--------------------|
D|-33333333555555551010101010101010-10-10--10--10--10--10-|
A|-33333333555555551010101010101010--8-10--10--10--10--10-|
E|-1111111113333333-8-8-8-8-8-8-8-8-----8---8---8---8---8-|

e|----------------------------------------------------------------------------|
B|----------------------------------------------------------------------------|
G|---------------------55555555-----------------------------------------10----|
D|-x10-3333333355555555555555553333333333333333555555551010101010101010-10-10-|
A|-x10-3333333355555555333333333333333333333333555555551010101010101010--8-10-|
E|-x-8-1111111133333333--------111111111111111113333333-8-8-8-8-8-8-8-8-----8-|

Lyrics:

you quit your job 
they screwed you around 
they screwed you around 
they screwed you around 
they screwed you around 
whatever you do
don't start a band 
don't start a band 
don't start a band
don't start a band
Tap to rate this tab
# A B C D E F G H I J K L M N O P Q R S T U V W X Y Z